#1
Intro

e------------------------------------------------------------------------------------------------------
b---5--70--8---5--70--8----5--70--8---5--70-8-3-0 2-0-1-0---------------------------------
g-0--0----0---0--0---0----0--0----0---0--0----0-------------------------------------------------
d------------------------------------------------------------------------------------------------------
a------------------------------------------------------------------------------------------------------
E------------------------------------------------------------------------------------------------------

verse

e-------------------------------------------------------------------------------
b-------------------------------------------------------------------------------
g-------------------------------------------------------------------------------
d-------------------------------------------------------------------------------
a---------------------3-33-3-5-55-5-9-99-5-3-2-0-----------------------
E--3-33-3-5-55-5-----------------------------------------------------------

e------------------------------------------------------------------------------------------------------
b------------------------------------------------------------------------------------------------------
g------------------------------------------------------------------------------------------------------
d------------------------------------------------------------------------------------------------------
a---------------------3-33-3-5-55-5-9-99-5-3-2-0-0---0-3-2-0-------------------------------
E--3-33-3-5-55-5----------------------------------------------------------------------------------

chorus

e------------------------------------------------------------------------------------------------------
b------------------------------------------------------------------------------------------------------
g------------------------------------------------------------------------------------------------------
d-xx5xx5xx5xx5-xx7xx7xx7xx7-xx6xx6xx6xx6-xx5xx5xx5xx5----------------------------
a-xx5xx5xx5xx5-xx7xx7xx7xx7-xx6xx6xx6xx6-xx5xx5xx5xx5----------------------------
E-xx3xx3xx3xx3-xx5xx5xx5xx5-xx4xx4xx4xx4-xx3xx3xx3xx3-333444555666--------

x= palm mute

Bridge
e------------------------------------------------------------------------------------------------------
b------------------------------------------------------------------------------------------------------
g------------------------------------------------------------------------------------------------------
d------------------------------------------------------------------------------------------------------
a--3-7-5-4-6-4-3-7-5-4-6-4-3-7-5-4-6-4-3-7-5-4-6-4--------------------------------------
E------------------------------------------------------------------------------------------------------

solo p1
e------------------------------------------------------------------------------------------------------
b----------12-15-16-13-------------12-15-16-13----------12-15-16-13---------------------
g-12-14----------------------12-14------------------12-14--------------------------------------
d------------------------------------------------------------------------------------------------------
a------------------------------------------------------------------------------------------------------
E------------------------------------------------------------------------------------------------------

solo p2

e------------------------------------------------------------------------------------------------------
b------------------------------------16-16-16-16-14-14-14-14-12-10-9-8-7-----------------
g--14-14-14-14-16-16-16-16-------------------------------------------------------------------
d------------------------------------------------------------------------------------------------------
a------------------------------------------------------------------------------------------------------
E------------------------------------------------------------------------------------------------------


order-

Intro x 1
Verse x 3
Chorus x2
Verse x3
Chorus x2
Bridge x1
Solo p1 x2
solo p2 x4
chorus x4
verse x1
Quote by jakeylee111
You do realise only Ug's horny male teens will come in here, right?
Which is why i came in here....

Founder of the Fullmetal Alchemest RulesClub Place in sig to join
Quote by AdayTripper
No porn, no fap fap.