#1
simply, what's your favourite chord sequence, can be as techniqual as you like, the only reason i am really asking, is because im lost for chords to learn which to put to my songs, im a stupid scuzzy theif at heart

my fave at the moment is Bm D Dsus4 A E
#3
has anyone got any really mellow, depressing, beautiful, rare chords they are willing to share with me?
#4
Sir Psycho Sexy (Outro) - RHCP
Untitled #11 - John Frusciante
Mascara - John Frusciante
Paranoid Android (Outro) - Radiohead

That's my favorites I can think of right now

Bry
#5
Strum

EM7omit3||BM7omit3||AM7omit3||F#M7omit3
e|-------------------------------------------------|
B|-------------------------------------------------|
G|---8-----------3-------------1-----------------|
D|---7-----------4-------------2------------3---|
A|---9-----------2-------------0------------4---|
E|--------------------------------------------2---|

they have a irregular sound to them but I like it
Quote by Metal-X
But last time I cranked my amp up. A small bird flew by at the same time I did a pinch harmonic.... and it exploded....



Too Late
#6
Quote by Scott_Dughan39
has anyone got any really mellow, depressing, beautiful, rare chords they are willing to share with me?


I think this one sounds really cool, I found it in "Nice Dream" by Radiohead:

0
0
2
1
x
2
#7
Am7 and D7 sound sweet together. throw in Em 7 which is just a few frets up and rock!

------------------------------2-------------- E
---------4-------------------2-------------- B
---------4-------------------2--------------- G
---------2-------------------0--------------- D
---------4----------------------------------- A
--------------------------------------------- E
"His clothes are dirty, but his hands are clean" - Lay Lady Lay
#8
i like jazz chords like the progression...... Gma7,Gma6, Ami7,Ami6,Gma7,Gma6, Ami7,D13b5b9

---x-- --x--- -5---- -5---- -7---------------
---3--- -3--- -5---- -5--- --7----------------
---4--- -4--- -5---- -5---- -5--------------
---4--- -2--- -5---- -4--- --x---------------
---x---- x---- -x---- -x---- -6--------------
---3---- 3--- -5---- -5---- -4--------------
Gma7 Gma6 Ami7 Ami6 D13b5b9


i especially like the last chord cause of its name as well as its sound