#1
[font="Courier New"]Solo One
a.
|2h3-5p3---------------------|
|--------5p3h5-2h3-----------|
|------------------5-3-2-b-v~|
|------------------------4-2-|
|----------------------------|
|----------------------------|
b.
|------------------------------------|
|------------------------------------|
|------------5-7-8-8-7-5-------------| X
|------5-7-8-------------8-7-5-------| 2
|5-7-8-------------------------8-7-5-|
|------------------------------------|
PM_________________________________/
c.
|-----------------------------------------|
|----------------v~-----------------------|
|------------7-9-10--10-9-7---------------|
|------7-9-10---------------10-9-7-----ph-|
|7-9-10---------------------------10-9-7--|
|-----------------------------------------|
PM_____________/     ________________/
d.
|15B-15V~14h15-14-14---------------------------v~|
|-------------------14h15-14-14----------------15|
|--------------------------------------12-14-15--|
|------------------------------12-14-15----------|
|------------------------------------------------|
|------------------------------------------------|
PM                             _______________/
e.
|----------------------------------------------------------------|
|----------------------------------------------------------------|
|----------------------------------------------------------------|
|------------7-9-10--------------8-10-11-----------------12-14-15|
|------7-9-10-------------8-10-11----------------12-14-15--------|
|7-9-10------------8-10-11---------------12-14-15----------------|
PM____________________________________________________________/

f.
|----------------------------------------14-15-17v~|
|--------------------------------14-15-17----------|
|------------------------14-15-17------------------|
|----------------14-15-17--------------------------|
|--------14-15-17----------------------------------|
|14-15-17------------------------------------------|
PM_______________________________/[/FONT]


e. is all palm muted the font is just being retarded don't ask me to change it. critiques please!
Last edited by punkture_wound at Jun 20, 2006,
#7
I strongly suggest you download powertab and put your solo on there. The download is free so there's really no excuse for not getting it. There you can give us the dynamics, rhythm, and accompaniment, which you didn't include in your post, efficiently and effectively. People need to know the rhythm pattern in order to play anything...rhythm is just as important as melody. Also, it's actually a lot easier to tab on powertab than to tab manually, like you did here. Until you do that, i can't comment on the quality of the solo, because I don't have enough information.
Last edited by poopikins at Jun 21, 2006,