#1
Hey guys, workin' on the "To Live is to Die" solo and I'm stuck on this part:

e--------------------------------------------------------------------------------
b-----------------------------------------------16b17r16----16b17r16----16b17r16-
g--------------14h16-14~~-----------------14h16-16b18r16-14-16b18r16-14-16b18r16-
d--------14h16----------------------14h16----------------------------------------
a--14h16----------------------14h16----------------------------------------------
e--------------------------------------------------------------------------------


The last bit of this part is what's troubling me the most. I just can't seem to find the right fingering. Can anyone help? Thanks.
#2

 e--------------------------------------------------------------------------------
b-----------------------------------------------16b17r16----16b17r16----16b17r16-
g--------------14h16-14~~-----------------14h16-16b18r16-14-16b18r16-14-16b18r16-
d--------14h16----------------------14h16----------------------------------------
a--14h16----------------------14h16----------------------------------------------
e-------------------------------------------------------------------------------- 


I'd say use your ring and middle finger for the bends on the 16th fret, and use your index for the 14's in between them.