#1
its on the tales from the punch bowl album by primus, and im just not sure if this is right or not. it sounds ok to me, but then again, i suck with relative pitch.


intro part
G----------------------5--5--5------
D----------------------5--5--5-------
A----------------------3--3--3------- x4
E-------------------------------------
B---1h3--1h3--1-------------------

chorus part, if you can call it that
G-------------------------------------------------------------
D-------------------------------------------------------------
A-------------------3h5--------------------------------------
E--------------------------3h5-------------------------------
B--3h5--3h5---------------------3h5-3h5----1h3--1h3-

anyways, does this sound about right to anyone else? i couldnt find a tab.
Quote by Mr. T
"Mr. T defines love as the reluctance to murder. If you're still alive, it's because Mr. T loves you."