#1
Its played quite fast, bout 180ish

E  Q    E  Q    E   E     E  Q    E  Q    E   E   
E||-------------------------|-------------------------|
B||-------------------------|-------------------------|
G||-----6----6--9----9--11--|-------------9----9--11--|
D||-----6----6--9----9--11--|-----7----7--9----9--11--|
A||-----4----4--7----7---9--|-----7----7--7----7---9--|
E||-------------------------|-----5----5--------------|


  E  Q    E  Q    E   E     E  Q    E  Q    E   E          
-------------------------|-------------------------||
-------------------------|-------------------------||
-------------9----9--11--|-------------9----9--11--||
-----2----2--9----9--11--|-----9----9--9----9--11--||
-----2----2--7----7---9--|-----9----9--7----7---9--||
-----0----0--------------|-----7----7--------------||


Thanks in advance for any advice i can get on it
#2
I had put this riff into Powertab (wrong timing for notes though, I didn't notice the Q's and E's above each one, sorry), and I thought it sounded really cool. I play mostly power chords (I'm a beginner), but yeah. Really good intro. Keep up the really good work. There's honestly nothing I'd change about it. Could you crit one of my songs? The link should be in my sig.