#1
I need help because i just learned how to play guitar about 3 months ago and i was wondering how do you read the part of this tab where the first pair of 7's are i was wondering if i just strum them like there is a zero between the or if i finger pick them or if i just pick them one at a time.(This tab is ''To Live Is To Die'' by Metallica just to let you know)


e------7-7-12-12-12--7-7-8-7-10-7h8p7-7-7-----------7
B-8-8------------ ---0-0---0---------- 7-7-7-------7- 7
G-9-9-7-7-9--9--9--- 0-0---0---------- 7-7---7---7---7
D----------------------- --------------------- 9
E----------------------------------------------------
#2
you strum them both but using your finger on the g string, mute the B by resting it on it.
#3
You hit the high E string and the G string but you mute the B string using one of your fretting hand fingers, preferrably hte finger fretting the G string.
#4
Yeah, use your index finger to play the G string, and lay it kinda flat so it just touches, but doesn't press down on, the B string.

Use your 2nd finger for the e string.

Also: put the tab inside these tags: [cdoe] *tab* [/cdoe] if you want it to look pretty

(you have to spell code correctly though):

e------7-7-12-12-12--7-7-8-7-10-7h8p7-7-7-----------7
B-8-8------------ ---0-0---0---------- 7-7-7-------7- 7
G-9-9-7-7-9--9--9--- 0-0---0---------- 7-7---7---7---7
D----------------------- --------------------- 9
E----------------------------------------------------


Click "quote" to see exactly what I did there.
Populus vult decipi. Decipiatur.

Quote by Mistress_Ibanez
It's can be a contraction and genitive case.

Quote by Mistress_Ibanez
If you cut down on these costs students won't learn so well, effecting the "quality"...
#5
you missed the a string? unless you have a five stringed guitar
Motley Crue 2/11/06!
Motley Crue/Aerosmith 11/21/06!
Sanctity/BLS 3/12/07!
Bleeding Through/Slayer/Manson-7/25/07!
A7x/Operator/the Confession/Black Tide 11/25/07!
Van Halen 2/12/07!
Quote by HaKattack
No, I wouldn't. My bear's penis is off limits.