#1

E|---------0-------|---------0-------|---------0-------|---------0-------|
B|-------6---6-----|-------6---6-----|-------8---8-----|-------8---8-----|
G|-----0-------0---|-----0-------0---|-----0-------0---|-----0-------0---|
D|---7-----------7-|---7-----------7-|---8-----------8-|---8-----------8-|
A|-5---------------|-5---------------|-5---------------|-5---------------|
E|-----------------|-----------------|-----------------|-----------------|

E|---------0-------|---------0-------|-----------0---------|-----------0--------|
B|-----------------|-----------------|---------------------|--------------------|
G|-------7---7-----|-------7---7-----|--------10---10------|--------10---10-----|
D|-----0-------0---|-----0-------0---|-----10---------10---|-----10-------------|
A|---8-----------8-|---8-----------8-|---0---------------0-|---0------------8-7-|
E|-6---------------|-6---------------|-8-------------------|-8------------------|


It's meant to be played kinda slow, cause it doesn't sound as sad fast, and that's what I was going for.
EDIT: I made them 8th notes now, even though they still could have been really slow 16ths...
Last edited by somebody_123 at Jun 28, 2006,
#2
Is each not supposed to be an 8th. Because by the looks of it your using 4 beat timing and 8ths are all that would fit, but it dosnt sound slow enough. Also i think it sounds better if you let the notes ring.
What the hell is the internet?
#4
I let them all ring except for the 8-7 on the A string.
And even in that case, I let the open strings ring.
#6
sounds good, but on the third chord figure I'd rather play with the 8th fret on the D string instead of it being open.
last.fm | Rush Hour | Dead Format
Quote by HxC73107
pray for plagues or off the heezay by bring me the horizon both great songs specially when ur at a pit at trhe reall show
#7
I put it on powertab and added some piano over the top.
The only thing I could use now is a suggestion of where to go after this intro.
I was thinking maybe some heavier stuff (that's why it's on a 7-string, just in case ).
Does anybody have any suggestions otherwise?
Cause I'm pretty open to other ideas.
Attachments:
Intro+Piano.zip
#8
i like bars 3-4 and 7-8 but i didnt really like bars 1-2 and 5-6 idk maybe its just the way i played it, i liked the piano melody alot i think u could do something with thatr its really good
Member #8 of the "Marty Friedman > You" Club. PM apocalypse13 or altronataku to join
#9
Heavier stuff? Listen to avenged sevenfold there pretty good at changing from softer acoustic type stuff to heavier. It also depends whhat kinda heavy you want? I think continueing with the nice melody type of song would be alot better but its your choice. What ever you come up with will work great for you and thats all that matter's in the end.
What the hell is the internet?
#10
I dunno... it just sounds really... ugly...
Quote by Anton Szandor LaVey
He who makes a beast of himself takes away the pain of being a man.


My Lyrics:

Silent Oblivion