#1
hey this something i had in my little book of riffs, i think it sounds really cool. its drop d, clean for the intro, and then distortion for everything else.


intro
d--------------------10-10-10-----8\7-------------------------------------------
A----------------------------------------------------------8-8-8-8-7-7-0-
D--8-8-8-8-8-8-8---------------8--8\7----0-0-0-0-0-0-0----------------------

then this(distortion)

e-------------10---10---------------------------------3--3
B-------------8-----8---let ring----------------------3--3
G--10-10------10---10---------------------------------2--2
D--8---8---------------------------------8\7--0--0-------
A--8---8---------------------------------8\7--0--0--------
D--8---8---------------------------------8\7--0--0--------

verse riff

d-------------2h3p2------------2h3p2---------------2h3p2----2---3-----3/5-
a--------------------------------------3-----------------3----3----3-------
D--0-0-0-0-----------0-0-0-0---------------0-0-0-0-----------------------------



thats about it, lemme know what you think. and i am pretty sure it doesnt sound like SOAD....hehe
Officer Nole07 of the U.G.P.D


Quote by rockybo
Honestly, it doesn't bother me in the slightest. So some moron put evidence of me exposing her stupidity in her signature, why should I care?