#1
K, well, I started playing one day, and I randomly made this up. Tell me what you think! I think I may try to incorperate it into a song at some point.

e|-------2-3-2-----------2-3-2----------------------------| 
B|-----3-------3-------3-------3--------------------------| 
G|---2-----------2---0-----------0------------------------| 
D|-0---------------2--------------------------------------| 
A|--------------------------------------------------------| 
E|--------------------------------------------------------| 

e|-------2-3-2-----------2-3-2----------------------------| 
B|-----3-------3-------3-------3--------------------------| 
G|---2-----------2---0-----------0------------------------| 
D|-0---------------2----------------2---------------------| 
A|--------------------------------------------------------| 
E|--------------------------------------------------------| 

e|-3--33--2----3--33--2-----------------------------------| 
B|-3--33--3----3--33--3-----------------------------------| 
G|-2--22--2----2--22--2-----------------------------------| 
D|--------------------------------------------------------| 
A|--------------------------------------------------------| 
E|--------------------------------------------------------|  


Cool? Or dumb?
Last edited by Naeroon at Jul 6, 2006,
#2
Dumb. Every guitarist has done this riif at some point or another. Just thought I'd let you know.
Member #6 of the Agile LP over Epiphone LP Club. PM iamtehwalrus768 to join.
When it comes to flipping pancakes, it's better than burgers.
#3
It's not very original. Good, but not really creative.
last.fm | Rush Hour | Dead Format
Quote by HxC73107
pray for plagues or off the heezay by bring me the horizon both great songs specially when ur at a pit at trhe reall show
#4
Ahah, ok :P

Well I'm fairly new (6 months AGH), so I thought I might as well through this out there.

Gotta learn, gotta learn!
#5
yah, just try adding new rhythms, change it up a bit, maybe harmonize, ya know, just play around and try to think almost outside the box while playing, cool stuff will come, but its a good riff, and if you like it, thats all that matters, but that doesnt mean that people have to tell you its "dumb, Just thought i'd let you know", thats just rude, they started out at somepoint, so that means they wrote dumb **** too. . . try getting power tab 1.7, its free, and really usefull. . .


Here's the Link:
http://www.power-tab.net/index.php
Last edited by Schecter86 at Jul 6, 2006,
#6
Thanks buddy! I'm using it right now, and messing around. It's really helpful!

Also, this is just one riff I have - of course I probably have better ones :P