#1
hey everyone i was having a little problem when learning how to finger pick the famous "Classical Gas". I know how to finger pick fairly well, but at the one part near the beginning, it goes:

||---------------------|--------------------|---------------------|
||0h1p0-1---1---0-|--------------------|-0---------0--------|
||*---------2---------|-----0-----0-------|---2-0-2-------2--|
||*--------------2----|---0-----0-----0--|---------------------|
||0-----------0-------|--------------------|---------------------|
||---------------------|-3-----2-----0----|-0-------0---0------|

and i'm having a bit of trouble with the part that goes:

|---------------------|
|-0---------0--------|
|---2-0-2-------2--|
|---------------------|
|---------------------|
|-0-------0---0------|

I use my thumb for all the bass notes, and i use my ring finger for all of the notes of the B string. I use my middle finger for all the notes on the G string. When I start playing fast, I find it difficult to play those 3 notes in a row with my middle finger.

Any suggestions to help with this problem?
Thanks in advance

/\/\ARK
=====>
#2
I use my middle finger and first finger alternating for that part. That's just the way I play it.
Double Neck Project - Winner of 2006 GB&C "Best guitar build from scratch", "(Best) Most expensive build" and "Best Idea" awards - FINISHED!

Member #2 of the UG Luthier's club. PM AlGeeEater to join.
#3
i use thumb for E A D and index for G middle for B and ring for e and Ive never run into any problems.
#4
I use my thumb for E A D and I do alternating picado on G B E......The only time I will use my ring finger is when I do arpeggios....