Poll: Is this riff/song good?
Poll Options
View poll results: Is this riff/song good?
definetly not
1 100%
not really
0 0%
kind of
0 0%
pretty good
0 0%
great
0 0%
Voters: 1.
#1
( If you see this tab twice in the menu it's because i forgot to put it in the tabs section the first time)Play with distortion, standard tuning, play pretty fast ( the notes might not match up perfectly with the timing, but they're all either quarter notes or eighth notes)

E------------------------------------------------------------------
B----------------------------------------------------------------
G-----------------------------------------------------------------
D------------------ 4--5----4---------------6--7-----6----------
A--------------------------------5-------------------------7---
E------------3-------------------------5-----------------------
timing: 1 & 2 & 3 & 4 & 1 & 2 & 3 & 4 &
E------------------------------------------------------------------
B----------------------------------------------------------------
G-------------------6-7-----6---------------6-7-----6-----------
D-------------------------------7-------------------------7--------
A------------5-------------------------5-------------------------
E----------------------------------------------------------------
timing: 1 & 2 & 3 & 4 & 1 & 2 & 3 & 4 &
E-------------------------------------------------------------------
B-------------------------------------------------------------------
G-------------------4-5--4-----4--5--------6--7--6-----6--7---
D-----------------------------5-------------------------7--------
A-------------3-------------------------5----------------------------
E-----------------------------------------------------------------------
timing: 1 & 2 & 3 & 4 & 1 & 2 & 3 & 4 &
E------------------------------------------------------------------
B------------------------------------------------------------------
G------------------------------------------------------------------
D------------------4--5--4----4--5--------4--5--4-----4--5
A----------------------------5-------------------------5-------
E------------3-------------------------3------------------------
timing: 1 & 2 & 3 & 4 & 1 & 2 & 3 & 4 &
E----------------------------------------------------------------
B------------------------------------------------------------------
G----------------------------------------------------------------
D------------5----5--5--5-----5--5--7----7--7--7-----7--7
A------------5----5--5--5-----5--5--7----7--7--7-----7--7
E------------3----3--3--3-----3--3--5----5--5--5-----5--5
timing: 1 & 2 & 3 & 4 & 1 & 2 & 3 & 4 &
E----------------------------------------------------------------
B------------------------------------------------------------------
G------------7----7--7--7-----7--7--7----7--7--7-----7--7
D------------7----7--7--7-----7--7--7----7--7--7-----7--7--
A------------5----5--5--5-----5--5--5----5--5--5-----5--5
E-----------------------------------------------------------------------
timing: 1 & 2 & 3 & 4 & 1 & 2 & 3 & 4 &
E----------------------------------------------------------------------
B------------------------------------------------------------------
G------------5----5--5--5-----5--5--7----7--7--7-----7--7
D------------5----5--5--5-----5--5--7----7--7--7-----7--7
A------------3----3--3--3-----3--3--5----5--5--5-----5--5
E----------------------------------------------------------------
timing: 1 & 2 & 3 & 4 & 1 & 2 & 3 & 4 &
E-----------------------------------------------------------------------
B-----------------------------------------------------------------------
G-----------------------------------------------------------------------
D------------5----5--5--5-----5--5--5----5--5--5-----5--5--------let the last chord ring and
A------------5----5--5--5-----5--5--5----5--5--5-----5--5------- then its done
E------------3----3--3--3-----3--3--3----3--3--3-----3--3-------
timing: 1 & 2 & 3 & 4 & 1 & 2 & 3 & 4 &
#4
also, what is a code? this is my first thing ever on ultimate guitar so i dont really know what I'm doing
#6
No bumping.
<Dobzilla> because "when you were born, they thought yo' momma shit herself."
<Frehnchy> ...
<esther_mouse> ...
<Rankles> ...
<RaNdOm-FeLiX> ...
<Dobzilla>