#2
I don't have a link but I can tell you the interval spellings

Natural Minor Scale: 1 2 b3 4 5 b6 b7 8

Pentatonic Minor Scale:1 b3 4 5 b7 8

Harmonic Minor Scale: 1 2 b3 4 5 b6 7 8

Melodic Minor Scale: ascending=1 2 b3 4 5 6 7 descending= 1 2 b3 4 5 b6 b7 8.

Jazz Melodic Minor Scale: 1 2 b3 4 5 6 7 8


PM me if you don't understand


i.d
UG Irish Clan: Póg mo thóin


Pm me and I'll give you a link to God's forum! It still needs mods


62% of teens smoke pot, put this in your profile if you like lesbians


#3
I don't understand, lol...

Can you lay it out in layman's terms? Like, in tab form preferably?

I know that Gmaj is

|-----------------------------------------2--3-----------------------|
|-----------------------------------3--5-----------------------------|
|--------------------------2--4--5-----------------------------------|
|-----------------2--4--5--------------------------------------------|
|--------2--3--5-----------------------------------------------------|
|--3--5--------------------------------------------------------------|

But what is G minor, in tab?
#4

     G  A  Bb C  D  Eb F  G  F  Eb D  C  Bb A  G
E|---------------------------------------------------|
B|---------------------------------------------------|
G|---------------------------------------------------|
D|---------------------3--5--3-----------------------|
A|------------3--5--6-----------6--5--3--------------|
E|---3--5--6-----------------------------6--5--3-----|
#5
Natural Minor Scale, Key of G:

E------------------------------------3-5-6--|
B----------------------------3-4-6----------|
G--------------------2-3-5------------------|
D---------------3-5-------------------------|
A--------3-5-6------------------------------|
E-3-5-6-------------------------------------|

That's the natural minor scale, it can be played over minor chords, m7 chords, and the like.