#1
These are 2 short solos that i made up yesterday so yea the tab is kinda unorganized but it still works these should be played at a fairly fast speed...




1st \/

|--15--13---------------------------------------------------13--15/17--15------------------------
|-----------15--13---------------------------------13h14h15--------------17--15\14-----------
|--------------------15--13---------------13--15-----------------------------------------17--15---
|-----------------------------15--13^16--------------------------------------------------------------
|--------------------------------------------------------------------------------------------------------   |--------------------------------------------------------------------------------------------------------

----------------------------------------------------------------------------------------15h16h17----|
-------------------------------------------------------------------------------15--17------------------|
------------------------------------------------------------------15h16h17--------------------------|
17--15\14---------------------------------------------15--17---------------------------------------|
-------------17--15-----------------------15h16h16------------------------------------------------|
----------------------17--15\14/15--17-------------------------------------------------------------|


2nd \/


|-------------------------------------------------------------------------------------------------------
|-------------------------------------------------------------------------------------------------------
|--10--12--10--12^15--12-------------------------------------------------------------10--12--
|--------------------------------12--10\9-----------------------------------------10--12----------
|--------------------------------------------10--9-------------------------10--12------------------
|---------------------------------------------------10--8~~10~~12~~--------------------------


--10--12/13^16--13^16\12--10\9-------------------------------------------------------------
-------------------------------------------12--10----------------------------------------------------
----------------------------------------------------12--10-------------------------------------------
-------------------------------------------------------------12--10----------------------------------
----------------------------------------------------------------------12--10---------10h11h12---
-------------------------------------------------------------------------------10--12----------------


---------------------------------------10--12~~~~~----------------------------------------------|
--------------------------10h11h12----------------------------------------------------------------|
-------------10h11h12-----------------------------------------------------------------------------|
10h11h12------------------------------------------------------------------------------------------|
-------------------------------------------------------------------------------------------------------|
-------------------------------------------------------------------------------------------------------|