#1
I was able to get the intro tabbed aswell so pay no attention to the title . It is shoe gaze style so it sounds different then it looks, and I probably missed a few tab symbols since I am a new. Its a very simple song. Enjoy please comment and Comment 4 Comment.

|-------------------------------------------|
|-------------------------------------------|
|-------------------------------------------|
|-7-7-7-7-------5-5-5-5-------3-3-3-3-3-3-3-|
|-7-7-7-7-------5-5-5-5-------3-3-3-3-3-3-3-|
|-5-5-5-5-3-6-5-3-3-3-3-1-4-3-1-1-1-1-1-1-1-|

intro^
[size="1"]---------------------------------------------------------------------------------------
 ----------------------------------------------------------------------------------------
 --2-----2-----2-----2-------2---------2-------3-----3-----3-----3-------3---------3-----
 3---3-3---3-3---3-3---3---3---3-----3---3---4---4-4---4-4---4-4---4---4---4-----4---4---
 ------------------------4-------4-4-------4-------------------------5-------5-5-------5-
 ----------------------------------------------------------------------------------------[/SIZE]


verse ^


[size="1"]-----------------------------------------------------------
 -----------------------------------------------------------
 5/7-7------------------------9-----7-----------10----------
 ------8------7h8-7h8-7h8-7h8-----8---8-------9---11--------
 --------9-9-7------------------9-------9-1111------1212/-9-
 -----------------------------------------------------------

 ------------------------------------------------------------
 ------------------------------------------------------------
 --------------5-------------------------7-----7-----7-----7-
 5-7-6-5-5-7-6-----6-6---6-5-6-5-6-7-8-------6-----6-----6---
 ----------------7-----7---------------9---5-----5-----5-----
 ------------------------------------------------------------

 ------------------------------
 ------------------------------
 --------5-7-----------------7-
 ----5-6-----7h8-8h9-7/9-8-----
 5-7-----------------------9---
 ------------------------------[/SIZE]

solo ^
Last edited by guitar? at Jul 9, 2006,