#6
i love funk it always makes me laugh
The Below Statement Is false
The Above Statement Is True
#8
i like it... ... will you marry me?

(just kidding... )
bananabananabanana terracotta banana terracotta terracotta *pie*

Quote by Bmm386
I think they should make a GTA paris in like 1795.
Your only goal is to feed your family and keep your horse alive.

Quote by I-AM-NOT-GOD
it hit the twin towers, not the pentagon, idiot
#10
Quote by 4string-tsurigi
sounds like a porno riff...

5/5


exactly like a porno riff! dude 5/5
Quote by rooster456
Guitars will bring girlfriends. Girlfriends won't bring guitars.



Because footstools are cool UG's Classical Guitarists
pm Marmoseti or Confusius to join
#11
Quote by green_machine
i like it... ... will you marry me?

(just kidding... )


god i hope you're a girl
#13
was it even good!! i mean jeez I tried to be like Jimmy Hendrix and I turned out to be some damn pornstar!
#14
Some old hairy man walks in the room and the girl decides to remove all her clothes...

Good one!
#16
I dont have any funk lessons, but I can tab this mother out for you if ya'll want?

you'll need a wah pedal and a couple porn stars to remake this.
#17
Quote by ShizNick
I dont have any funk lessons, but I can tab this mother out for you if ya'll want?

you'll need a wah pedal and a couple porn stars to remake this.

Im down 5/5
Quote by rabidguitarist
I even tried dressing up as a fly myself, and throwing myself out of the window in the hope that they will follow me. But to no avail.

Quote by daytripper75
we have a Llama forum, and still no drum forum.
#18
ok I didn't tab out the whole thing, but it's the same riff pretty much the whole time..

[font="Courier New"]--------------------------------------------------------------------
-x-x-x-x--12\--x---x-x-------------x-x-x-x--12\--x------------------
-x-x-x-x--12\--x---x-x--12brp10----x-x-x-x--12\--x--------10----10~-
-x-x-x-x--12\--x---x-x---------12--x-x-x-x--12\--x--10h12----12-----
-x-x-x-x-------x---x-x-------------x-x-x-x-------x------------------
--------------------------------------------------------------------

------------------------------------------------------------------------------------
-x-x-x-x--12\--x--x-x------------------10-12p10-------------------------------------
-x-x-x-x--12\--x--x-x--12brp10-----12b----------12brp10----10~----10-12-12brp10-----
-x-x-x-x--12\--x--x-x----------12-----------------------12-----12---------------12--
-x-x-x-x-------x--x-x---------------------------------------------------------------
------------------------------------------------------------------------------------[/FONT]
Attachments:
tab.txt
Last edited by ShizNick at Jul 11, 2006,
#19
Quote by ShizNick
god i hope you're a girl




i am !!!!!!!
bananabananabanana terracotta banana terracotta terracotta *pie*

Quote by Bmm386
I think they should make a GTA paris in like 1795.
Your only goal is to feed your family and keep your horse alive.

Quote by I-AM-NOT-GOD
it hit the twin towers, not the pentagon, idiot