#1
I took one of the riffs from my short solos and made it into a full solo so here it is, also keep in mind that this is my first time attempting to solo...ever, so some constructive critizisum would be nice. also i didn't know the correct symbols for this so when it says 9^11\(2) it means when u slide from 11 to 2 dont strum the 2... in some spots it is a little sloppyfor some reason but even if there is a long pause just keep playingeven when it skipps lines... sorry for being so dumb

this should be played at a very fast speed with normal tuning:


|---15-13----------------------------------------------------13-15/17-15-----------------------------------------------------------------
|-----------15-13------------------------------13h14h15-----------------17-15\14-----------------------------------------------------
|-------------------15-13--------------13-15--------------------------------------------17-15---------------------------------------------
|----------------------------15-13^16-------------------------------------------------------------17-15\14--------------------------------
|-------------------------------------------------------------------------------------------------------------------17-15------------------------
|----------------------------------------------------------------------------------------------------------------------------17-15\14/15-17--

----------------------------------------------15h16h17/19-17-------------------------------------------------------------------------------
--------------------------------------15-17-----------------------19-17\15-------------------------------------------------------------------
------------------------15h16h17--------------------------------------------19-17-----------------------------------------------------------
----------------15-17-------------------------------------------------------------------19-17\15----------------------------------------------
--15h16h17----------------------------------------------------------------------------------------19-17--------------------------------------
-----------------------------------------------------------------------------------------------------------------19-17\15/17-19---------------

-------------------------------------------19-17\15-17----------------------------------------------------------15-13-----------------------
-----------------------------------17-19-----------------15-17-----------------------------------------------13------------------------------
----------------------19-17\15---------------------------------15-17------------------------------------15----------------------------------
--------------17-19-----------------------------------------------------15-17-------------------------13-------------------------------------
--19-17\15---------------------------------------------------------------------15-17-------------15-----------------------------------------
--------------------------------------------------------------------------------------------15-17-13---------------------------------------------

-------------------------------------------------------------------------------------------------------------------------------------------------------|
---15-14-13---------------------------------------------------------------------------------------------------------------------------------------|
----------------15-14-13---------------------------------------------------9^11\(2)------------------------------------------------------------|
-----------------------------15-14-13----------------------------------10------------------------------------------------------------------------|
------------------------------------------15-14-13------------------11---------------2-----------------------------------------------------------|
-------------------------------------------------------15-14-13\12-------------------2-----------------------------------------------------------|
#3
Pretty good for your first solo.

But -

It's basically notes going down the neck, then up the neck, then down the neck, then up the neck, and so on. Needs some more interesting phrasing instead of just running scales up and down the neck.