#1
Okay i've been playing for about two years, and van halen intrigues the crap out of me, I can play eruption all right except for the fast bit in the intro ( I don't know how he plays this so fast:
|---------------------5
|---------8p5------
|----------------8---

)

anyways I want to play a solo perfectly and Hot for teacher, Panama, Jump all seem a bit to intricate for me
until i figure out how to that intricate picking i described above
can you suggest a solo that is a bit easier, or tell me how to pick the above better??? i'm lost

i'm going to try to look up more videos of people playing it mayb
#4
Oh in this 95' issue of Guitar World it has it transcribed as...

|------------------- |--------------------|
|----8--5--0------ |----5--8--5----0--|
|--------------8--- |--------------8-----|
|------------------- |--------------------|
|------------------- |--------------------|
|------------------- |--------------------|

x5
#5
^ Thats the correct way.
RIG
Jackson SL3 Soloist
89' Ibanez RG570
Vader 4x12 Cabinet
Line 6 HD147 Head
6space HEAD/RACK case
Korg DTR1000 Rack Tuner
Furman Power Conditioner
ISP Decimator
#7
he likes pulling off into 'nothing' = open strings

it gives the sound of a flurry of notes...
Founder of the Ibanez RG5xx & up club PM tombo32 to join

Member #6 'I <3 mids' club. PM Roc8995.

My Name is: Tony