#1
this is a thread where you place all the guitar licks you know from scales and modes then i will put them in this first message every once in a while to update them. please put what scale or mode your lick comes from then put the lick(s). go ahead!

Minor Pentatonic Scale (A)

|----------5--------|
|-------5----8p5----|
|-7b9---------------|
|-------------------| 
|-------------------|
|-------------------|


|------------|
|------------|
|--------5---|
|----5h7---7-|
|-/7---------|
|------------|


|-/5-------|
|-/5-------|
|----7p5---|
|--------7-|
|----------|
|----------|


|-8p5---5-----------------|
|----8---8p5-8p5--5-------|
|---------------7--7p5----|
|----------------------7~-|
|-------------------------|
|-------------------------|


|------------|
|--------5---|
|--------5---|
|----5-----7-|
|-/7---7-----|
|------------|


|---------------|
|---------------|
|-----------5---|
|-7p5---5h7---7-|
|-----7---------|
|---------------|


|---------------|
|-------5-------|
|-7p5-----7p5---|
|-----7-------7-|
|---------------|
|---------------|


|-8p5--8p5---8p5\-|
|----5-----5------|
|-----------------|
|-----------------|
|-----------------|
|-----------------|
Last edited by fenderguy09 at Jul 21, 2006,
#3
Quote by kirbyrocknroll
Does this include solos? Because I know that the Sanitarium solo is in E minor


How would a lick equal a solo? Just licks man. Including licks from that solo might help. As for licks, they are my own.
Run!
-----------------------------------------------------------
Simply, the world was too small for a man of his ambition.
Quote by ifeastonbums
GuitarSymphony you are my hero!
#4
i have a whole bunch typed up in guitar pro, but I'm not too sure if I'm able to use them because there out of different guitar books. But heres one of my favorites.


|----------5--------|
|-------5----8p5----|
|-7b9---------------|
|-------------------| 
|-------------------|
|-------------------|

Just repeat that as many times as desired
#5
yeah, just licks please

edit: i added some more licks that i found on cyberfret.com.
Last edited by fenderguy09 at Jul 21, 2006,
#7

e--13^12~~-10-------------------
b---------------------10^12--------
g-------------------------------------
D-------------------------------------
A-------------------------------------
E-------------------------------------


I just made that up, don't even have a guitar near me!

I've been spending way too much time on theory.

It would fit over C maj and all its modes and A minor (yes its repetitive to say minor after I said all modes, sue me).
Takamine EG531SSC - "Kim"
Fender Mexican Stratocaster - "Jessica"
-Texas Special Pickups
Crate Palomino v16 Class A Tube Amp

Well it's floodin down in Texas