#1
Capo 2


E-------------------------------------------------------------------------------------
B---------------------------------------0---------------------------------------------
G--------0-------------0------------------0-----------0----------------0-----------
D-----------0-------------0-------------------------------0----------------0--------
A---3-3-------3/5--5--------5/7--7--------7\5--5---------5\3--3----------------
E--------------------------------------------------------------------------------------



HERE IS THE POWERTAB FOR THE RHYTHM..

http://www.yousendit.com/transfer.php?action=download&ufid=7AFB2518194C0AA6

I was wondering if someone could help me finish this riff, and help me make a tranistion into some chords...but I also dont know what key this is in and what chords could work with what I have...I need help....someone please?

Those 0's are supposed to be after each sliding thing then the note...like the first two, I cant make them look right =(
Last edited by xemosucksx at Jul 23, 2006,
#6
E|-----------------------------------------------------------|
B|-------------------------8---------------------------------|
G|-----5---------7-----------9-------7---------5---------3---|
D|-------5---------7-------------------7---------5---------3-|
A|-3-3-----3/5-5-----5/7-7-----7\5-5-----5\3-3-----3\1-1-----|
E|-----------------------------------------------------------|
C5 D5 E5 D5 C5 Bb5

copy this to WORD and open in Courier New 10
here you go
#9
Quote by saberrocks
for chords: C(5), D(5), E(5), D(5), C(5)


this might sound a bit stupid but how do you tell what key its in?