#1
Hey, I wonder if someone can figure out this song ^^

It's called Tirar de la Cuerda, by Gone. It's an Spanish hiphop song, with a very catchy acoustic base. I would love to play this song. You can listen to the song here. This is not warez, this guy composes for free ^^

cya! and thanks in advance!
#2
Its a pretty piece, I'll give you that I may be wrong but it sounds like a D Shape chord:

|--------------|--------------|--------------|
|--8--8-----8--|--7--7-----7--|--5--5-----5--|
|-------7-7----|-------6-6----|-------4-4----|
|--5--5--------|--4--4--------|--2--2--------|
|---5----------|---4----------|---2----------|
|--------------|--------------|--------------| Then do the same last chord but to a diff rythm which I can't get down


EDIT: Oops. forgot the octaves at the beggining
Archdeacon of the Church of Zeppelinism
PM TheHeartbreaker to join

Highway One Telecaster (Upgrade)
Laney 30 Watt Combo
Boss ME-50 FX

horazonblade, you are one of the reasonable/intelligent people on this forum... - JewMasatFlex
Last edited by horazonblade at Jul 26, 2006,
#3
Here's how I interpret it:


|-------------|-2---2-----2-|-------------|---------------------|---|
|-8---8-----8-|-------------|-5---5-----5-|-5-----5---5-3-1-0-1-|---|
|---4---4-4---|---2---2-2---|---0---0-0---|---0-0---0-----------|---|
|-5-----------|-4---4-------|-5---5-------|-5-------------------|---|
|-------------|-------------|-------------|---------------------|---|
|-------------|-------------|-------------|---------------------|---|


I didn't include the timing because that's pretty easy to figure out.
My God, it's full of stars!
#4
Hey, horazonblade, I will love you for this all my life! You have figured it out so fast! But I think that my guitar is out of tune or something... that guy's guitar sounds higher ^^'

Thanks thanks thanks thanks and thanks!!!!!! >You rock man!
#5
Hey, horazonblade, I will love you for this all my life! You have figured it out so fast! But I think that my guitar is out of tune or something... that guy's guitar sounds higher ^^'

Thanks thanks thanks thanks and thanks!!!!!! >You rock man!

EDIT: Dreadnought, thanks a lot, luv ya too :P
#6
Quote by eNoyx
But I think that my guitar is out of tune or something... that guy's guitar sounds higher ^^'


stick a capo on that sucker until you find the right pitch

htpp://www.olivergoldingmusic.com
#7
I've already tried the capo, but even on the 1st fret it sounds too high ^^

Dreadnought's version is a bit more accurate :P (don't get angry horazonblade, yours is good too)