#1
 |----------10-12-13-12-10-----------------------------------------------|
 |-10-12-13----------------13-12-10-13-12-10-----------------------------|
 |-------------------------------------------12-10-9-12-10-9-------------|
 |-----------------------------------------------------------12-10-9-12--|
 |-----------------------------------------------------------------------|
 |-----------------------------------------------------------------------|



|-18--17-15----------------------------------------------------------------|
|-----------18-17-15-18-17-15----------------------------------------------|
|-----------------------------17-15-14-17-15-14----------------------------|
|-----------------------------------------------17-15-14-17-15-14----------|
|-----------------------------------------------------------------17-15-13-|
|--------------------------------------------------------------------------|



How would you finger this? I would usually use my first, third and fourth fingers but I was just interesed in how other people would do it
#2
Well, the 10-12-13 would be with my first, third and fourth fingers, while the 9-10-12 would be with my first, second and fourth fingers. The second pattern is just the same, only 5 frets higher, so I'd use the same fingering
#3
it may be difficult to jam your fingers up at the 18th fret unless you have jumbo frets, so instead of 1-3-4 i would use 1-2-3...but maybe that's just me
Quote by BigFatSandwich
it took you 15 consecutive hours of practice to realize that playing guitar makes you better at playing guitar. congratulations.


Quote by Sharp_as_steel
Axe_grinder pwns!!!!



Member #2 of the "Official UG Teabaggers' Cult". PM Slayer224 to join.
#4
Yeah but its harder to transist on the third string isnt it, also I find it harder to play with my first, third and fourth than my first second and fourth fingers, expecially playing up with speed but playing down its ok
#6
you need to do finger exercises that builds up those two fingers so they work together properly
my gear:
zack wylde les paul custom
randy rhoads v custom
120 watt crate amp
505 zoom processor
ibanez weeping demon wah


"no one you can tell, for youve been raptured to hell"
-me