#1
I thought this would be a cool idea and people can learn from all diffrent genres.


So basically you post a lick you like or a lick out of a song you like ill kick start it.


Jimmy Page Style


E-----------5--8p---5-------------------
B---------5-----------8p---5------------
G-----7b------------------7p---5-------
D-----------------------------------7----
A-----------------------------------------
E-----------------------------------------
#2
e|-----------------------------------------------
B|-----------------------------------------------
G|------------------------------------------------
D|--------------------------3--------------------------------
A|12\--3h5-5-5--xx---------5---3p0-3-5-------------
D|12\---------------xx-3----3---5----------0-3-5-7-0-

Class riff from Tom Morello
Quote by Virgil_Hart05
Beating the elderly is a big favourite of mine. Also, pushing kids over and kicking pregnant women in the womb is fun.



Right now we're called 'Various Artists' just to fuck over people with iPods
#3
generic blues type fill

e----------------------------------12--7--10--7--------------------------------------------
B--9p7------------------------7-------------------10--7------------------------------------
G--9p7--------------------7--------------------------------9--------------------------------
D--------9----------7--9---------------------------------------9-----------------------------
A-----------7--10--------------------------------------------------10--7--------------------
E-----------------------------------------------------------------------------10---7---(0)---
#4
EI----------------------------------------------------------------I
BI----------------------------------------------------------------I
GI----------------------------------------------------------------I
DI---7-7-5-------------------5--------7-----7---------7-------I
AI-----------7----------5h7-----5h7-----4-----5--7----------I
EI--------------8/5----------------------------------------------I
Duke Ellington - If it sounds good, it is good.
#5
Eb-----------------------------------------------|
Eb-----------------------------------------------|
D---6-6-6-4--6-6-6-6--9-9-9-9--6-6-6-4--|
D---6-6-6-4--6-6-6-6--9-9-9-9--6-6-6-4--|
G-------------------------------------------------|
G-------------------------------------------------|

Typical Sonic Youth lick; this one is from 'Green Light'
#6
^Weird tuning

-8-7-----------------
-----8---10-8--------
-------9------9-7----
------------------10-
---------------------
---------------------


Basic C6/9 arpeggio with a B as extra note
#7
Quote by elvenkindje
^Weird tuning

-8-7-----------------
-----8---10-8--------
-------9------9-7----
------------------10-
---------------------
---------------------


Basic C6/9 arpeggio with a B as extra note

A C6/9 with the extra B note is bassically a C Maj13.
#8
Noel Gallagher Style

e|--------------------------------------------|
b|--------------------------------------------|
g|--------5h-7--7b-7bh-5-------5h-7----|
d|--5h-7--------------------5h-7----------|
a|--------------------------------------------|
e|--------------------------------------------|
#9
Slash style:


                                                Palm Mute  |---|                 
                                                           . . .
E|--------5-8-------------------------------------------------------------------|
B|-8b(10)-----8b(10)r-5-8-------5-8---------------------------------------------|
G|------------------------7b(9)-----7b(9)r-5---7---5~---------------------------|
D|-------------------------------------------7---7----7-5-----------------------|
A|---------------------------------------------------------7-6-5-5b(6)r-3-------|
E|------------------------------------------------------------------------5-5~--|
Proud owner of an Engl Thunder 50 Reverb and an Ibanez S470

"The end is extremely fucking nigh..."