#1
can some one check that im doing this right please.

B minor

- -7 -9 - - - - - - - - - - - - - - -- - - - 9 - 7-
- - - - -5-7 -9 - - - - - - - - - -9 -7 -5 - - -
- - - - - - - - -5 -7 -9 -9 -7 -5 - - - - - - - -
- - - - - - - - - - - - - - - - - - - - - - - - - - - -

Extended B minor

- -7 -9 - - - - - -- -- - - - - - - - - - -- - - - -- - - - -9 -7 - 5
- - - - 5 - 9 - 7- - -- - - - - - - - - - - - - - - -5-7 -9 - - - - - -
- - - - - - - - - 5 -7 -9 - - - - - - - 9 -7 -5 - - - - - - - - - - - -
- - - - - - - - - - - -6- 7- 9-7 -6 - - - - - - - - - - - - - - - - -

C minor

- -8 - - - - - - - - - - - - - - - - -- - - - 8 - - -
- - - - -5- 6 -8 - - - - - - - - - -8 -6 -5 - - -
- - - - - - - - -5 -6 -8 -6 -5 - - - - - - - - - -
- - - - - - - - - - - - - - - - - - - - - - - - - - - -

Extended C minor

- -8 - - - - - - - - - - - - - - - - -- - - - - - - - 8 -7 - 5-
- - - - -5- 6 -8 - - - - - - - - - - - - - -8 -6 -5 - - -
- - - - - - - - -5 -6 -8 - - - - -8 - 6 -5 - - - - - - - - - -
- - - - - - - - - - - - - - 5- 7- 8- - - - - - - - - - - -
#2
I don't think so...

Gimmie a sec...

B Minor

G|------------------------------
D|-------------7-9--------------
A|-------7-9-10----7-9-10-------
E|-7-9-10----------------7-9-10-

C Minor

G|------------------------------
D|-------------8-10-------------
A|-------8-1011----8-1011-------
E|-8-1011----------------8-1011-


Me thinks thats right...
Last edited by GiantRaven at Aug 4, 2006,
#3
does any one know where i might be getting it wrong. ive got the intervals as w - h - w -
w - h - w - w
#6
Then you're writing your tab upside down

The E string goes at the bottom on tab

edit: The intervals are right, you may have just started in the wrong place or something. I checked in my book, what I wrote down is correct
Last edited by GiantRaven at Aug 4, 2006,