#1
Is this bass tab? or messed up guitar tab?

F--------------------------
C--------------------------
G--6--------6----7-6----7-6
D--4--4-4-4-4--0-5-4--0-5-4
pm.... . .

2)
F--------------------------
C--8--------8--9-----------
G--6--6-6-6-6--7-7-6----7-6
D----------------5-4--0-5-4
pm.... .


3) AH
F------------------------------------------------------------
C--13--------------12--10\9/10---7-------------4-------------
G--11-----------11-10--8-\7/8--7-5--11-9\8/9-5-2---7-6----7-6
D------11-11-11----------------5----9--7\6/7-3---0-5-4--0-5-4
pm....... . .
Founder of UG's David Bowie Fan Club. Pm to join.

Founder of UG's "Rockers against being freakishly skinny" Club. PM to join.
#2
Guitar without the other strings marked up.. It's a D open Tuning (low to high D G C F A D) I'm assuming but maybe it is bass, play it and see if it sounds good
...:::The Master Chief :::...
#4
uhhhhhh


F--------------------------
C--------------------------
G--6--------6----7-6----7-6
D--4--4-4-4-4--0-5-4--0-5-4
pm.... . .

2)
F--------------------------
C--8--------8--9-----------
G--6--6-6-6-6--7-7-6----7-6
D----------------5-4--0-5-4
pm.... .


3) AH
F------------------------------------------------------------
C--13--------------12--10\9/10---7-------------4-------------
G--11-----------11-10--8-\7/8--7-5--11-9\8/9-5-2---7-6----7-6
D------11-11-11----------------5----9--7\6/7-3---0-5-4--0-5-4
pm....... . .


looks like guitar but it could be a bass i guess

never the less, this is the wrong forum