#1
The speed is about 144 bpm, all notes are eight.

|-15-14----------14-15-14-19-14----------14-15-14-|
|-------15----15----------------15----15----------|
|----------16----------------------16-------------|
|-------------------------------------------------|
|-------------------------------------------------|
|-------------------------------------------------|

|-13-12----------12-13-12-13-12----------12-13-12-|
|-------13----13----------------12----12----------|
|----------12----------------------13-------------|
|-------------------------------------------------|
|-------------------------------------------------|
|-------------------------------------------------|
#2 member of the ''Guitarist that wished they could sing because they would make fantastic frontmen'' club.

PM Davidian to join.

Quote by potassium_39
dude your a walking talking metal making expert!!!

i bet this person sucks so bad emo people laugh

^0wned^
#2
dont mean to sound rude but just use your ears and the starting note of each phrase of that patern- so if it starts on a c, use a c chord. but use your ears more than anyting. mebe record it and keep playing it back whilst playing chords over the top of it and finding out wot sounds gd and wot doesn. think of the scale its in as wel, and the root note.
#3
The first line is in the key of Bminor, the second line is in the key of Aminor. Perhaps try something like:

First line: D5 B5 G5 B5
Second line: C5 A5 F5 A5

Just some random thought..
The "Popped Collar" Award(Sexiest)
Elvenkindje

The "Rest In Real Life" Award(Best Past MT Mod)
Elvenkindje
#4
The way I see it, the lick is outlining these chords:
  B minor                    B minor
|-15-14----------14-15-14-19-14----------14-15-14-|
|-------15----15----------------15----15----------|
|----------16----------------------16-------------|
|-------------------------------------------------|
|-------------------------------------------------|
|-------------------------------------------------|


  C major                    E major
|-13-12----------12-13-12-13-12----------12-13-12-|
|-------13----13----------------12----12----------|
|----------12----------------------13-------------|
|-------------------------------------------------|
|-------------------------------------------------|
|-------------------------------------------------|

Make sense?

-SD
#5
Quote by ryanmay
dont mean to sound rude but just use your ears and the starting note of each phrase of that patern- so if it starts on a c, use a c chord. but use your ears more than anyting. mebe record it and keep playing it back whilst playing chords over the top of it and finding out wot sounds gd and wot doesn. think of the scale its in as wel, and the root note.


You can do it that way in some progressions, however, sometimes it can be more complicated. For instance, this technique would be good for say powerchord progressions, however, if you want something a little more thicker sounding, you'll want to use extended chords (major minor etc etc).

Looking at whats being played (in the tab) is a good way of working out what chords to play.
Been away, am back
#6
Quote by SilentDeftone
The way I see it, the lick is outlining these chords:
  B minor                    B minor
|-15-14----------14-15-14-19-14----------14-15-14-|
|-------15----15----------------15----15----------|
|----------16----------------------16-------------|
|-------------------------------------------------|
|-------------------------------------------------|
|-------------------------------------------------|


C major E major
|-13-12----------12-13-12-13-12----------12-13-12-|
|-------13----13----------------12----12----------|
|----------12----------------------13-------------|
|-------------------------------------------------|
|-------------------------------------------------|
|-------------------------------------------------|

Make sense?

-SD

Yeah, I agree. All of those phrases are basically arpeggios of the listed chords.
Looking for my India/Django.
#7
Okey, thanks to everyone. I was really starting to give up on that lick so this thread was like a last resort, cause I liked it very much. I see now that I should pay attention to the scales (though I did, I just looked at them wrong).
#2 member of the ''Guitarist that wished they could sing because they would make fantastic frontmen'' club.

PM Davidian to join.

Quote by potassium_39
dude your a walking talking metal making expert!!!

i bet this person sucks so bad emo people laugh

^0wned^