#1
Ok... i havent been on for years, but here's a little fingerpicking thing....

edited because the font trick does not work here... look at the next post.

It's not finished... but that's what i have so far.
wat.
Last edited by SsPunk at Aug 7, 2006,
#2
Click this link: https://www.ultimate-guitar.com/forum/announcement.php?f=46#2.2
There is where you can read how to post a tab and have it look like the following.


-------------------------------------------------------------------------------
			     Little Fingerpicking thing
-------------------------------------------------------------------------------

Tuning: Drop D.

   [3][3][3][3][3][3] etc....      rit..
e|---0--0--0--0--0--0--0--0--0|---1----1-----1-----1-----1..-|
B|--1--1--1--1--1--1--1--1--1-|--0---0-----0-----0-----------|
G|-2--2--2--2--2--2--2--2--2--|-2--2-----2-----2-----2-------|
D|----------------------------|------------------------------|
A|----------------------------|------------------------------|
D|----------------------------|------------------------------| X 2.


e|---0--0--0--0--0--0--0--0--0|---1--1--1--1--1--1--1--1--|---4--4--4--4--1----1-----1-----1...-|
B|--1--1--1--1--1--1--1--1--1-|--0--0--0--0--0--0--0--0---|--0--0--0--0--0---0-----0-----0------|
G|-2--2--2--2--2--2--2--2--2--|-2--2--2--2--2--2--2--2----|-1--1--1--1--1--1-----1-----1--------|
D|----------------------------|---------------------------|-------------------------------------|
A|----------------------------|---------------------------|-------------------------------------|
D|----------------------------|---------------------------|-------------------------------------|

e|---0--0--1--0--0--0--0--0..-|
B|--0--0--0--0--0--0--0--0----|
G|-1--1--1--1--1--1--1--1-----|
D|----------------------------|
A|----------------------------|
D|----------------------------| ---Repeat From The Top---

e|-------0--------0-------0-------0-|-------1-------1-------1-------1-|
B|---1-------1--------1-------1-----|---0-------0-------0-------0-----|
G|-----2-------2--------2-------2---|-----2-------2-------2-------2---|
D|---------2----------------2-------|---------3---------------3-------|
A|-0----------------0---------------|-0---------------0---------------|
D|----------------------------------|---------------------------------| X 2

e|-------1--------1-------1-------1-|-------0-------1-------0-------0-|-------0-------0-------0-------0-|
B|---0-------0--------0-------0-----|---0-------0-------0-------0-----|---0-------0-------0-------0-----|
G|-----2-------2--------2-------2---|-----1-------1-------1-------1---|-----1-------1-------1-------1---|
D|---------3------------------------|---------2---------------2-------|---------2---------------2-------|
A|-0--------------------------------|---------------------------------|---------------------------------|
D|------------------3-------0-------|-2---------------2---------------|-2---------------2---------------|


If you have any questions, please feel free to PM me and I'll try to help you out.