#1

moderate tempo

intro
1-------2-----2------2------2-2-3-----1
1-----3-----3------3--3---1-----------1
1---4-----3------2-------2------------1
1-------------------------------------1
1-------------------------------------1
1-------------------------------------1

change to moderate- fast tempo

1---5---5--------5---4---4---------4-----1 
1-----7----------7------6----------6-----1 
1---6-----6----------6------6------------1 
1----------------------------------------1 
1----------------------------------------1 
1----------------------------------------1 2x 

chorus
1--5-----5sl7---7sl10-----10---7-7-7^---------1
1------7-------8---------12----6-6-6^---------1
1--6--------9-------11---------6-6-6^---------1
1---------------------------------------------1
1---------------------------------------------1
1---------------------------------------------1 2x

back to top

bridge
1---5----6---4------5----6--7--------1
1------7------6---------7---6--------1
1---6---------6------6------6--------1
1------------------------------------1
1------------------------------------1
1------------------------------------1 2x

outro change to slow tempo
1---7---5---4---2-------1------2--------1
1---6---7---6---2-----2------2----------1
1---6---6---6---4---4------4------------1
1---------------------------------------1
1---------------------------------------1
1---------------------------------------1
Last edited by runwiththesun at Aug 8, 2006,