#1
I've been looking for some classic blues riffs, ya know just some stuff to keep a rhythm and then do a little soloing over it. If you guys could drop some links or some tabs that would be great.
#3
12 bar blues are good but i was looking for others besides the that...something a little more complex
#5
yeah i do too and i was looking for more riffs that are fun to keep a beat to other than just 12 bar blues
#6

----------------------
----------------------
----------------------
----2-----------------
----0------0----------
-0-----3b--0----------


There's your generic blues riff.
Quote by dudetheman
So what? I wasted like 5 minutes watching DaddyTwoFoot's avatar.


Metalheads are the worst thing that ever happened to metal.
#8

---------------------------------------
---------------------------------------
---------------------------------------
-------------1-3-1--------------1-3-
-3-1---1-3---------3-1---1-3------
------3-------------------3----------

And keep moving it up 2 frets, it sounds pretty good.
"Insecticon" of the Predacons Beast Wars Club
PM NightmareXT To Join!



You make me feel
Like a dog, you can see, my emotions
Is this for real, i'm a man
Sinking deep, in the ocean