#2
Octaves.
The "Popped Collar" Award(Sexiest)
Elvenkindje

The "Rest In Real Life" Award(Best Past MT Mod)
Elvenkindje
#3
oh i remember the name now. but i meant how would i name the chords as in c,d etc
#4
You'd call that a B octave interval. (That is, if the three strings you wrote are the E, A and D strings)
#5
That would be an octave powerchord.

What do you mean how you name the chords? Do you mean how to find the root note in a chord?
#6
yep. the root would be good. i know how to name barres using the root, so how would i do it for octaves

thanks
#7
So let's try this.

e------------------------------
b------------------------------
g------5----------------------
d------x----------------------
a------3------------------------
E------------------------------


So the root would be C.


e------------------------------
b------------------------------
g----------------------------
d-----11----------------------
a------x-----------------------
E------9------------------------


This interval's root would be C#/Db.