#1
I thought it sounded pretty cool...been playin for about 2 months. First post here as well.


I forgot to read the rules... damn
#2
record it for us
Quote by ihatemetal
Fallout boy with Tom Delonge on vocals would be the ultimate supergroup


you my friend, are an idiot
#3
Read the rules for us before posting this again.

https://www.ultimate-guitar.com/forum/announcement.php?f=46#2.2

Thanks.

Then your tab will look like this:



e|-----------------------7--------7----|
B|--10----12-10----10------8---10---8--|
G|9-----9-------------12-----9--------9|
D|--------------12---------------------|
A|-------------------------------------|
E|-------------------------------------|

e|-----------------------7--------7---7|
B|--10----12-10----10------8---10---8--|
G|9-----9-------------12-----9---------|
D|--------------12---------------------|
A|-------------------------------------|
E|-------------------------------------|

e|----------------------7------------7-|
B|--10---12-10----10------8---10---8---|
G|9----9-------------12-----9----9-----|
D|-------------12----------------------|
A|-------------------------------------|
E|-------------------------------------|

e|----------------------7--------7-10-7|
B|--10---12-10----10------8---10-------|
G|9----9-------------12-----9----------| 
D|-------------12----------------------|
A|-------------------------------------|
E|-------------------------------------|