#1
There's a scale I use in darker metal songs. In a "B" based song it would be.

23----67---------
0-------78--------
-------67---------
----------89------
------------9,10---
23----67--9,10---

Can someone give me the correct name please ??
#2
Quote by HAVOC 51
There's a scale I use in darker metal songs. In a "B" based song it would be.

23----67---------
0-------78--------
-------67---------
----------89------
------------9,10---
23----67--9,10---

Can someone give me the correct name please ??


B harmonic minor
Quote by highway2hell999
What The Hell Is Bong-water????????????????????????????????
YEAH, A BABY!
#3
For the love of god, use code:
Tab
without the spaces.
The "Popped Collar" Award(Sexiest)
Elvenkindje

The "Rest In Real Life" Award(Best Past MT Mod)
Elvenkindje