#1
this is a little blues tab i created today. enjoy

so i couldnt line it up properly to dexribe the timing but you should get the point. also the (0) means that you should palm mute it when when strike it so it sounds more like a thump. when you hit the 3's on the high E string it sounds better if you bend the crap out of them




E--------3b--0----------------------------------------3b-0--------------------------------------------------------------------------------------------------------------------
B----------------------3--------------------3------------------------------------------------------------------------------------------------------------------------------------
G-----------------------------------3^4------------------------------------------2^0--------------------------------------------------2^0-------------------------------
D---------------------------------------------------------------------5^0-----------------0-----0------0^2---------------5^0-----------------0--------0---------0^2-
A------------------------------------------------------------------------------0----------------------------------------------------0-----------------------------------------
E---(0)-------(0)-----------(0)-----------------(0)---------(0)------------------------------3-----0---------------0---------------------------------3--------0-----------


E---------------------------------------------------3b-0------0-
B----4^5-5-5-5-5-5--------------------------------------------0-
G----5^6-6-6-6-6-6------7^5------5---0------------------------1-
D----4^5-5-5-5-5-5-------------7------------------------------2-
A-------------------------0-----------------------------------2-
E-0---------------------------------------------0--------0----0-


Last edited by Mr. Young at Aug 12, 2006,