#1
HEY GUYS i NEED SOME COOL TABS NOT SONGS I MEAN LITTLE ONES U MADE UP U WANNA SHARE
#6
no!!! they didn't line up here..., the font here sucks.., u know how to change the font??? i'll look for Courier
#7
look u tool if u wanna put it in just make it line up if not im sure it wont be that hard to read
#8
E||--7---7---8---7---7---8---9---7---|--8---8---9---8---8---9---10---8---|
B||----7---7---7---7---7---7---7---7-|----7---7---7---7---7---7----7---7-|
G||----------------------------------|-----------------------------------|
D||----------------------------------|-----------------------------------|
A||----------------------------------|-----------------------------------|
E||----------------------------------|-----------------------------------|


--7---7---9---9---9---11---10---8---|--7---6---7---6---7---6---5---6---|
----7---7---7---7---7----7----7---7-|----7---7---7---7---7---7---7---7-|
------------------------------------|----------------------------------|
------------------------------------|----------------------------------|
------------------------------------|----------------------------------|
------------------------------------|----------------------------------|


, i do that first, then on the 2nd play the pedal guitar plays:

E||----|----|----|----|------------------------------------------|
B||----|----|----|----|------------------------------------------|
G||----|----|----|----|--7h-8-7h-8-7h-8-7h-8-7h-8-7h-8-7h-8-7h-8-|
D||----|----|----|----|------------------------------------------|
A||----|----|----|----|------------------------------------------|
E||----|----|----|----|------------------------------------------|


----------------------------------------------|
----------------------------------------------|
--9-10-11-10-9-10-11-10-9-10-11-10-9-10-11-10-|
----------------------------------------------|
----------------------------------------------|
----------------------------------------------|


--------------------------------------------|--------------------------|
--------------------------------------------|--11----10----9----8------|
--7h-8-7h-8-7h-8-7h-8-9-10-11-10-9-10-11-10-|--------------------------|
--------------------------------------------|--------------------------|
--------------------------------------------|--------------------------|
--------------------------------------------|--tremolo-picking---------|

isn't it good???