#1
i know, lots of fives and sevens and zeros,
but its just something i made when i was playing on my acoustic

supposed to play quite fast, the bass notes indicate the rythm

enjoy!


[font="Courier New"]Verse:
 

           							           __
                                                                             |
e|--------------------0---------------------0--------------------------------|
B|------------------7---------------------7----------------------------------|
G|-------7---------------------7---------------------------------------------|
D|----0----------0----------0----------0-------------------------------------|  
A|---------------------------------------------------------------------------|
E|---------------------------------------------------------------------------|
						                             |
e|--------------------0------------------------------------------------------|
B|------------------7--------------------------------------------------------|
G|-------7---------------------7---------------------------------------------|
D|----0----------0----------0----------0-------------------------------------|  
A|---------------------------------------------------------------------------|
E|---------------------------------------------------------------------------|
                                                                             |  2x
e|-----------------7----------------------7----------------------------------|
B|--------------------0----------------------0-------------------------------|
G|-------7---------------------7---------------------------------------------|
D|---------------------------------------------------------------------------|  
A|---------------------------------------------------------------------------|
E|----7---------7-----------7----------7-------------------------------------|
                                                                             |
e|-----------------7---------------------------------------------------------|
B|--------------------0------------------------------------------------------|
G|-------7---------------------7---------------------------------------------|
D|---------------------------------------------------------------------------|  
A|---------------------------------------------------------------------------|
E|----7---------7-----------7----------7*------------------------------------|
								             |
								           ---

Chorus:

e|--------------------0---------------------0--------------------------------|
B|------------------5---------------------5----------------------------------|
G|-------5---------------------5---------------------------------------------|
D|---------------------------------------------------------------------------|
A|---------------------------------------------------------------------------|
E|-7*\5----------5----------5----------5-------------------------------------|

e|---------------------5--------------------5--------------------------------|
B|-------------------0--------------------0----------------------------------|
G|-------7---------------------7---------------------------------------------|
D|---------------------------------------------------------------------------|
A|---------------------------------------------------------------------------|
E|----7----------7----------7----------7-------------------------------------|

e|--------------------0---------------------0---------------5----------------|
B|------------------5---------------------5-----------------0----------------|
G|-------5---------------------5------------------------7--------------------|
D|---------------------------------------------------------------------------|
A|---------------------------------------------------------------------------|
E|----5----------5----------5----------5-------------7-----------------------|

e|--------------------0---------------------0--------------------------------|
B|------------------5---------------------5----------------------------------|
G|-------5---------------------5---------------------------------------------|
D|---------------------------------------------------------------------------|
A|---------------------------------------------------------------------------|
E|----5----------5----------5----------5-------------------------------------|

e|---------------------5---------------------5p0-----------------------------|
B|-------------------0-------------------------------------------------------|
G|-------7---------------------7---------------------------------------------|
D|---------------------------------------------------------------------------|
A|---------------------------------------------------------------------------|
E|----7----------7----------7----------7-------------------------------------|

e|--------------------0---------------------0----------------5---------------|
B|------------------5---------------------5------------------0---------------|
G|-------5---------------------5------------------------7--------------------|
D|---------------------------------------------------------------------------|
A|---------------------------------------------------------------------------|
E|----5----------5----------5----------5-------------7-----------------------|


*= same note

Verse 2:

Same as the other verse, but whith slight changes

									 
e|--------------------0---------------------0--------------------------------|
B|------------------7---------------------7----------------------------------|
G|-------7---------------------7---------------------------------------------|
D|----0----------0----------0----------0-------------------------------------|  
A|---------------------------------------------------------------------------|
E|---------------------------------------------------------------------------|
										  
e|--------------------0------------------------------------------------------|
B|------------------7-----------7--------------------------------------------|
G|-------7--------------------------7----------------------------------------|
D|----0----------0----------0------------------------------------------------|  
A|---------------------------------------------------------------------------|
E|---------------------------------------------------------------------------|
                                                                               
e|-----------------7----------------------7----------------------------------|
B|--------------------0----------------------0-------------------------------|
G|-------7---------------------7---------------------------------------------|
D|---------------------------------------------------------------------------|  
A|---------------------------------------------------------------------------|
E|----7---------7-----------7----------7-------------------------------------|
                                                                             
e|-----------------7---------------------------------------------------------|
B|--------------------0----------0------0------------------------------------|
G|-------7---------------------------7---------------------------------------|
D|---------------------------------------------------------------------------|  
A|---------------------------------------------------------------------------|
E|----7---------7-----------7------------------------------------------------|

e|--------------------0---------------------0--------------------------------|
B|------------------7---------------------7----------------------------------|
G|-------7---------------------7---------------------------------------------|
D|----0----------0----------0----------0-------------------------------------|  
A|---------------------------------------------------------------------------|
E|---------------------------------------------------------------------------|
										  
e|--------------------0------------------------------------------------------|
B|------------------7-----------7--------------------------------------------|
G|-------7--------------------------7----------------------------------------|
D|----0----------0----------0------------------------------------------------|  
A|---------------------------------------------------------------------------|
E|---------------------------------------------------------------------------|
                                                                             
e|-----------------7----------------------7----------------------------------|
B|--------------------0----------------------0-------------------------------|
G|-------7---------------------7---------------------------------------------|
D|---------------------------------------------------------------------------|  
A|---------------------------------------------------------------------------|
E|----7---------7-----------7----------7-------------------------------------|
                                                                             
e|-----------------7---------------------------------------------------------|
B|--------------------0------------------------------------------------------|
G|-------7---------------------7---------------------------------------------|
D|---------------------------------------------------------------------------|  
A|---------------------------------------------------------------------------|
E|----7---------7-----------7----------7-------------------------------------|

End:

e|-----5-----|
B|-----7-----|
G|-----7-----|
D|-----------|
A|-----------|
E|-----------|
[/FONT]



i might try to make a bridge of some sort, to complete it
And what is more, there's been a bloody purple nose and some bloody purple clothes that were messing up the lobby floor. It's just apartment house rules so all you 'partment fools remember : one man's ceiling is another man's floor.