#1
/--------------------------------------------------
/--------------------------------------------------
/--------------------------------------------------
/--------------------------------------------------
/00000----00001h2/3------------------------
/00000----00001h2/3------------------------

Drop C
/=slide
h=hammer
moderatly fast=127

Simple yes i know and play drop c its so simple!!!! so i want people to add on it and make it cooler and more hardore and thrashy!
#3
play some As I Lay Dying, just to get an idea (like hammer-ons and pull-offs on the D string)
EDIT: just don't copy their style, or you will sound like a poser
RIP Jasmine You.

Lieutenant of the 7-string/ERG Legion

Quote by FaygoBro420
Yo wassup, I'm trying to expand my musical horizons if you know what I mean, so can anybody reccomend me some cool Juggalo jazz?
#5
^Not many people in UG enjoy dropped C tunings
RIP Jasmine You.

Lieutenant of the 7-string/ERG Legion

Quote by FaygoBro420
Yo wassup, I'm trying to expand my musical horizons if you know what I mean, so can anybody reccomend me some cool Juggalo jazz?
#6
thats actually a pretty cool idea, have a bar of music or w/e and everyone can add **** and see what other people thoguht of... maybe not for that riff tho
#7
Quote by aznrockerdude
^Not many people in UG enjoy dropped C tunings

well it doesnt have to be in drop c thats just how i like it system of a down use alot of drop c and so does AILD but it can be standard or drop d or w/e
#8
Quote by FrancheComa
thats actually a pretty cool idea, have a bar of music or w/e and everyone can add **** and see what other people thoguht of... maybe not for that riff tho

Well i just tried to make up something simple
#9
yeah real cool idea. it might actually make something that sounds good, lol.
#10
I would probably do that once then reverse the second part of it 3/2p10000 . Then I would bend 1 with a whammy (if you have one, if not, add maybe a bit of vibrato?) and then 3 do the same thing on the F string (A string for those of us who think in standard tuning all the time).
#11
|--------------------------------
|--------------------------------
|--------------------------------
|-------------------------------- 3x
|--------------------------------
|-333--222--111--000------
. . . . . . . . . . . . PM

drop-d

|------------------------------------------|
|------------------------------------------|
|------------------------------------------|
|3--2--0--1------------------------------|
|3--2--0--1------------------------------|
|3--2--0--1----3-2-0-3-2-0-0-0-0-0-|
. . . . . . . . . .
Last edited by blk99 at Aug 16, 2006,
#12
Needs more cow bell
Schecter C-1 Classic (Antique Amber)
Ibanez JEM 7VWH
Crate Palamino Class A tube combo
Digitech RP80 Multieffects pedal
Ibanez TS9 DX Tube Screamer
#17
is anyone gonna add anything? wasnt that like the purpose of this thread? lol
#18
/-----------------------------9999999999999999---------------------------12-/
/-----------------------------0000000000000000-------------------------------/
/-----------------------------1111111111111111-------------------------------/
/-----------------------------6666666666666666-------------------------------/
/00000----00001h2/3---0000000000000000-------------------------------/
/00000----00001h2/3---5555555555555555-------------------------------/
A dwarf might hear you. What then?

My Music
#19
------------------------------------------|
|------------------------------------------|
|------------------------------------------|
|3--2--0--1------------------------------|
|3--2--0--1------------------------------|
|3--2--0--1----3-2-0-3-2-0-0-0-0-0-|


.......*slams guitar after emo guitar swing into the face.
My Gear-
Schecter 006 BlackJack
Ovation Tangent T357
Fender Hot Rod Deluxe
Roland Cube 60
Boss NS-2, CE-5, DS-1
DiMarzio Pedal Couplers
#21


betcha can't play this with thefoldarsoldar:
-12
-5
-9
-2
-7
-0

hint: its an E chord.
Quote by Roc8995
Thin necks make you play faster because guitars with thin necks sound thin and bad, and you play fast to distract people from the bad tone.
#22
emo guitar....wtf? krank the the distortion and it sounds pretty bad ass, tool