#1
I don't know what forum to put this in but oh well...what do yall think?


Intro:
Cadd9 G/F
E ------------------3-------------------------------------1-------------------------
B ------------3--------3--------------------------------------0--------------------
G ------0-------0--------0-----------------------0----------------0----------------
D ----2---2-----------------2---0----------0-------0----------------0------------
A --3-------------------------------------2----2------------------------------------
E -------------------------------------3---------------------------------------------
Am E
E ---------------------0-----------------------------------------0-------------0-----
B ---------------1-------1------------------------------0----------0----------0-----
G ---------2-------2-------2---------------------1--------1----------1-------1----
D ------2----2----------------2--0---------2--------2--------2---------------2-----
A ---0-----------------------------------2-----2-------------------------------2-----
E -------------------------------------0----------------------------------------0-----

Verse:
Cadd9 G/F Am E
E --3---------1---------0-------- 0-----------
B --3---------0---------1---------0-----------
G --0---------0---------2---------1------------
D --2---------0---------2-------- 2-----------
A --3---------2---------0---------2-----------
E -------------3-------------------0-----------
Strumming Pattern: Down, Down, Down, Up, Up, Down, Down
Gear:

1996 Fender Stratocaster Jimmie Vaughan Edition
Ovation 1860 Balladeer Acoustic/Electric
Miller Electric
Indiana Jones Acoustic

Kustom Amp
#2
that G/F is a G7
Quote by GuitarHobbiest
What exactly is a powerchord?


Quote by laid_to_waste
My trouser snake is friendly. If you pet him, he might even do a trick! think I'm going to hell for that one.