#1
I started taking guitar lessons like 2 weeks ago so yeah ima beginner, and i really wanna get to master the 2 solos for this song. ending and beginning. i memorized the notes but im having trouble doing the 4-note bends or whatever u call it, i do it with one finger which i know might not be proper, but yeah this stuff:


e:-----------------|-------------------|---------------------|
B:-----------------|-------------3-5-6-|-7h8p7p5-7---------5-|
G:-----------------|-4h5p4p3h4-5-------|-----------------7---|
D:-----------------|-------------------|---------------------|
A:-----------------|-------------------|---------------------|
E:-----------------|-------------------|---------------------|


F#7
e:---------------------------------|-------0-7--9--7-|-----14----------|
B:-7--7h8p7\5--5h8p5\3--3h5p3\2----|----2------------|-11--------------|
G:------------------------------4--|-3---------------|-----------------|
D:---------------------------------|-----------------|-------------12\-|
A:---------------------------------|-----------------|-----------------|
E:---------------------------------|-----------------|-----------------|


TIPS PLEASE!!!!
#3
Quote by Mattefuller
uhh, theres no bends in your tab


well yeah as i said, im a beginner.....so i dont really know the terms n stuff, my bad.
but what i was talking about it 4p5h6, stuff like that....when you have to slide your fingers to play notes. i don't know how u call that, but yeah
#4
wrong forum but uh use the code next time.

that tab looks shitty
My Spanish Hearts
#5

e:-----------------|-------------------|---------------------|
B:-----------------|-------------3-5-6-|-7h8p7p5-7---------5-|
G:-----------------|-4h5p4p3h4-5-------|-----------------7---|
D:-----------------|-------------------|---------------------|
A:-----------------|-------------------|---------------------|
E:-----------------|-------------------|---------------------|


F#7
e:---------------------------------|-------0-7--9--7-|-----14----------|
B:-7--7h8p7\5--5h8p5\3--3h5p3\2----|----2------------|-11--------------|
G:------------------------------4--|-3---------------|-----------------|
D:---------------------------------|-----------------|-------------12\-|
A:---------------------------------|-----------------|-----------------|
E:---------------------------------|-----------------|-----------------|


If that helps.
#6
Quote by neox the cow

e:-----------------|-------------------|---------------------|
B:-----------------|-------------3-5-6-|-7h8p7p5-7---------5-|
G:-----------------|-4h5p4p3h4-5-------|-----------------7---|
D:-----------------|-------------------|---------------------|
A:-----------------|-------------------|---------------------|
E:-----------------|-------------------|---------------------|


F#7
e:---------------------------------|-------0-7--9--7-|-----14----------|
B:-7--7h8p7\5--5h8p5\3--3h5p3\2----|----2------------|-11--------------|
G:------------------------------4--|-3---------------|-----------------|
D:---------------------------------|-----------------|-------------12\-|
A:---------------------------------|-----------------|-----------------|
E:---------------------------------|-----------------|-----------------|


If that helps.



yeah that's what i meant, thanks. so which forum should i post this then??
#7
musicians talk.
Quote by thefoldarsoldar
10
you sir, are funny as hell.



Follower of the Church of Gilmour, PM happytimeharry to join
#8
well your'e talking about pullofs and hammerons.

how to do this is:

anchor one finger, probably your index on a fret (say 5), and then to hammeron, you strike the note, then put your finger on say fret 7, but not slowly, do it fast. practice makes perfect, good luck!
Quote by JimmyPageSlash
nice i like how rocker clothes are cheap. im gonna be dressing completely rocker soon


TOOL ALERT