#1
So the original thread seems to have been automatically deleted by UG in order to make room for new threads. I'm remaking this thread though since it certainly wasn't through with. Here's a link to the video (in English this time):

http://www.yamaha-europe.com/yamaha_europe/download/movies/01_product_demos/L-Guitars/L-Guitars_english_v1_0_300k.wmv

And here's the incomplete tab for the first song:


Dave Goodman - Yamaha L Series Demo Video Song 1
Tuning - Standard EADGBe
Note: Capo on 1st fret.

E|-------------|------------|-------------|------------|
B|--5---3---0--|-3-------0--|-------0-----|-0-------0--|
G|--------0----|-----0------|-2h4-4-----0-|-0---0------|
D|----2--------|---2--------|---------0---|-------2----|
A|-------------|-3-----3----|-5-----------|---2--------|
E|--0----------|------------|-------------|-0----------|


E|-------------|------------|-------------|------------|
B|--5---3---0--|-3-------0--|-------0-----|-0----------|
G|--------0----|-----0------|-2h4-4-----0-|-0---0------|
D|----2--------|---2--------|---------0---|------------|
A|-------------|-3-----3----|-5-----------|---2--------|
E|--0----------|------------|-------------|-0-----0----|


E|------------------------------0------7--|--5-----3---|
B|-0---------0---------0------------------|------7-----|
G|-----0---------0---------0---------0----|----7-------|
D|----------------------------------------|--0---------|
A|---2---------2---------2---------7------|------------|
E|-------0---------0---------0------------|------------|


E|------0-----|---------------|-0-----3--|--5-----3---|
B|-3------3---|-0-------0-----|----------|------7-----|
G|(0)-0-------|-----0-------0-|-----0----|----7-------|
D|------------|---2-------2---|---2------|--0---------|
A|-3----------|-------2-------|----------|------------|
E|------------|-0-------------|-0--------|------------|


E|-0-----5--|-0-------7--|---------10-|--5-----3-|
B|-3--------|-8---8------|-----8------|------7---|
G|-0---0----|-9-9--------|---9--------|----7-----|
D|---2------|-9----------|-9----------|--0-------|
A|-3--------|------------|------------|----------|
E|----------|-------0----|------------|----------|


E|------0----|------------|------------|-------------|
B|-3------3--|-0-------0--|--0h3-----3-|-------0-----|
G|(0)-0------|-0---0------|--0-----0---|-2h4-4-----0-|
D|-----------|---2--------|------2-----|---------0---|
A|-3---------|-------2----|--3---------|-5-----------|
E|-----------|-0----------|------------|-------------|

E|------------|-----------------------|
B|-0----------|-0---------0---------0-|
G|-0---0------|-----0---------0-------|
D|------------|-----------------------|
A|---2--------|---2---------2---------|
E|-0-----0----|-------0---------0-----|


E|-------------|------------|-------------|------0---|
B|--5---3---0--|-3-------0--|-------0-----|-----0----|
G|--------0----|-----0------|-2h4-4-----0-|----4-----|
D|----2--------|---2--------|---------0---|---2------|
A|-------------|-3-----3----|-5-----------|--2-------|
E|--0----------|------------|-------------|-0--------|


Ok so now that it's back, let's get on tabbing out that second song and perfecting the first one as well. I know somebody had already tabbed out the intro to the second song, but I don't remember the tab or who it was. Hopefully they will see this and post it back up here.

-Jim
#2
great stuff jim, i did get round to learning this but i didn't perfect it... might aswell have another bash.

htpp://www.olivergoldingmusic.com
#6
ok so i had a go at the intro ages ago, it's only the very firt bit of the song, i tried a bit more but it's too sloppy to be worth posting, this is the only part i can be 100% sure of (with capo 1 by the way)

intro
E-0----0--------------------------------0------
B-0--02-2/5533---------------------------------
G-1-----------2/3/20---------------------------
D-2-----------------0h2p0h2p02-----------0h2---
A-2---------------------------0h1p0------------
E-0--------------------------------3p0--------0
#8
^-- that's the first of two songs in the video... that is the one that we have somewhat tabbed out.

what happens when you click my original link?
#9
What The Hell Is On His Thumb!!
[highlight]MY GUITAR[/highlight]
Quote by TheAmaranth
I once broke a G-String while fingering an A minor.

A recent study shows that 92% of all teenagers have moved on to rap music. Put this in your sig if you are one of the 8% who stayed with real music.
#11
Quote by kam3
What The Hell Is On His Thumb!!

its a unique kind of wart that is grown on ones thumb when one acheives the rank of legendary guitarist, the wart is grown through a process called "photosynthesis" its the body's natural response to the tones and rythms of a veteran guitarist, it was originally thought to be a defense mechanism to the harsh abrasions of the strings, and many people sought to have them removed, but it is now considered a blessing to have one of these "thumb pick warts" (or TPW's as the're more commonly known) because it is a unique tool allowing one to pick in a way never before imagined
#13
Quote by brandonian
its a unique kind of wart that is grown on ones thumb when one acheives the rank of legendary guitarist, the wart is grown through a process called "photosynthesis" its the body's natural response to the tones and rythms of a veteran guitarist, it was originally thought to be a defense mechanism to the harsh abrasions of the strings, and many people sought to have them removed, but it is now considered a blessing to have one of these "thumb pick warts" (or TPW's as the're more commonly known) because it is a unique tool allowing one to pick in a way never before imagined


for some reason i can sense sarcasim!!!
[highlight]MY GUITAR[/highlight]
Quote by TheAmaranth
I once broke a G-String while fingering an A minor.

A recent study shows that 92% of all teenagers have moved on to rap music. Put this in your sig if you are one of the 8% who stayed with real music.
#14
so what is that thing any way???
[highlight]MY GUITAR[/highlight]
Quote by TheAmaranth
I once broke a G-String while fingering an A minor.

A recent study shows that 92% of all teenagers have moved on to rap music. Put this in your sig if you are one of the 8% who stayed with real music.
#15
Hey guys this thread is dying again. Has anyone made any progress with the second song yet. Oh and i bought a thumb pick the other day to see what they're like...they suck, after using your thumb for so long it's weird when you have to hold your thumb away from the string to pluck it, it's taking me ages to get used to it
#16
Nice song, I think I'll learn that. It's very Tommy Emmanuel-esque

EDIT: The second one is very John Renbourn-esque. As is the first one TBH.
Double Neck Project - Winner of 2006 GB&C "Best guitar build from scratch", "(Best) Most expensive build" and "Best Idea" awards - FINISHED!

Member #2 of the UG Luthier's club. PM AlGeeEater to join.
Last edited by Calum_Barrow at Sep 23, 2006,
#17
how much is that guitar hes playing?
Ibanez RG760 (For Sale)
Yamaha Pacifica (For Sale)
Zoom G2.1U effects pedal (For Sale)
Tanglewood Acoustic
Kustom 16DFX Amp