#1
I started taking guitar lessons like 2 weeks ago so yeah ima beginner, and i really wanna get to master the 2 solos for this song. ending and beginning. i memorized the notes but im having trouble doing the 4-note slide or whatever u call it, i do it with one finger which i know might not be proper, but yeah this stuff:

e:-----------------|-------------------|---------------------|
B:-----------------|-------------3-5-6-|-7h8p7p5-7---------5-|
G:-----------------|-4h5p4p3h4-5-------|-----------------7---|
D:-----------------|-------------------|---------------------|
A:-----------------|-------------------|---------------------|
E:-----------------|-------------------|---------------------|


                                     F#7
e:---------------------------------|-------0-7--9--7-|-----14----------|
B:-7--7h8p7\5--5h8p5\3--3h5p3\2----|----2------------|-11--------------|
G:------------------------------4--|-3---------------|-----------------|
D:---------------------------------|-----------------|-------------12\-|
A:---------------------------------|-----------------|-----------------|
E:---------------------------------|-----------------|-----------------|



TIPS PLEASE!!!
THANKS!