#1
i was trying to play How to deal by Frankie J on my Acoustic and i dont know if its supposed to be fingerpicked or if its supposed to be played with pick.also i dont know if this tab is better than the one on UG.Ug one is = http://www.ultimate-guitar.com/tabs/f/frankie_j/how_to_deal_acoustic_ver2_tab.htm

How To Deal - Frankie J
INTRO ONLY

D Bm7 G A
e|2-----0---5--------------0-2--------3--------------0--|
B|----3---3----3-------3-3------0--------3-2-----3------|
G|--2----------------2---2----------0----------2---2----|
D|0----------------4-----4--------0----------2----------|
A|---------------2-------2-----------------0------------|
E|------------------------------3-----------------------|

D Bm7 G A
e|2-----0----5------9h10p9----0h2-0h2-------3--------------0--|
B|----3---3----3----------10-------------------3-2-----3------|
G|--2------------2------------------------0----------2---2----|
D|0-----------------9-------------------0----------2----------|
A|-----------------------------------------------0------------|
E|------------------------------------3-----------------------|

then u start strumming the chords D Bm7 G A.

because when i tried to fingerpick the UG one.it didnt sound quite right.Thanks for any help.