#1
E]-------------------
B]-------------------
G]---0---0-------------
D]--2---2----0---0------
A]-3---3----2---2---------
E]---------3---3----------

E]-------------------
B]-------------------
G]-------------------
D]---1---1---2---2------
A]--0---0---2---2---------
E]-2---2---0---0------------

C, G, Am, ?

Okay so I made a little intro to a song I wrote.
See the last part?
There used to be an 'Em' there.
But I noticed you can barely hear the difference...
Do any of you know of any low sounding chords similiar to 'Em'.
Also, do any of you have any suggestions for this little 'Intro' of mine?

ANY comments would be appreciated.

I hate it when people say this but...
Thanks in advance.
:-]
#3
Well I see the C and the G in the top part. The second two shapes looklike F#m6 and Em.
Looking for my India/Django.
#4
Yeah.
I wasn't so sure about the F#m6.
So thanks. :-]
But I need a chord that sounds sort of like ,harmonic, if you wish, to the last part of the intro.
#5
well if you want to use an Em type of chord you could use an Em6, Em7, Em7b5, or really anything with an E-G#-B to start with, you know?

my version of little wing is made up entirely of Maj6 and m7th chords

what im saying is that you can replace any minor with any other minor, im not sure if im making sense
Last edited by FeatherBreeze at Aug 22, 2006,