#1
ok, here's the deal, my friend and i are makeing a song for guitar, and we cant think of a good verse/corus/solo part.(s) can someone help us? heres the intro

Intro: Gtr.1 clean
|---------------------------|--------------------------------------
|---------------------------|--------------------------------------
|---------------------------|-------------------------------------- x2
|------4-5-4-2-0---------|-----4-5-4-2------------------------
|---2---------------4-0---|---2---------------------------------
|---------------------------|--------------------------------------
then the electric guitar comes in wil alot of distortion,while the acoustic is still playing

Gtr.1 clean
|---------------------------|--------------------------------------
|---------------------------|--------------------------------------
|---------------------------|--------------------------------------
|------4-5-4-2-0---------|-----4-5-4-2----------------------- x2
|---2---------------4-0---|---2---------------------------------
|---------------------------|--------------------------------------

Gtr.2 heavy distortion
|---------------------------|--------------------------------------
|---------------------------|--------------------------------------
|---------------------------|-------------5*~~-----------------
|------4-5-4-2-0---------|-----4-5-4--------------------------
|---2---------------4-0---|---2---------------------------------
|---------------------------|--------------------------------------


we want it to sound sort of like an A7X song, but whatever you can come up with that sounds like a really cool rock song will help us alot,. thanks!
#3
I got an idea for the verse just have the acoustic strum Bm, G, Bm, and A while electric is playing the intro. That's all I have. hope this helps a bit. cheers
EMO
The protagonist sees the dragon and moans about how hard it will be to get the princess to fall in love with him, he gets eaten. The princess is very happy, because he was a whiny fag anyway.

Quote by kanguuu
its old, good, but old lol
#5
you could have the acoustic strum Bm, G, Bm, and A like daver said but wait a couple verses and turn up dist and then play that intro kinda has a strength of the world feel sounded good when i played it good luck