#1
the chords in bryan adams summer of 69 song are as follows:

D* is the progression: Dsus - D - Dsus4 - D - Dsus - D (arpeggiated)

A* is the progression: Asus - A - Asus4 - A - Asus - A (arpeggiated)

how do i play these progressions? thanks for any help..
#2
e--0--------2----------3---------2--------0-----2------
B-----3---------3---------3---------3--------3---------
G--------2---------2---------2---------2---------------
----u d d u d d u d d u d d u d u
-------3 1 2 3 1 4 3 1 2 3 1 3 2

the numbers are the fingers ans the u and d are up and down picking,
you can figure out the other chord but instead of always having your third and first fingers always down, you keep your first on the D string and the second on the G string
Last edited by razordimeback at Aug 24, 2006,
#3
e|-0-----2-----3-----2-----0---2-|
B|---3-----3-----3-----3---------|
G|-----2-----2-----2-----2---2---|
D|-0-----------------------------|
A|-------------------------------|
E|-------------------------------|

e|-------------------------------|
B|-0-----2-----3-----2-----0---2-|
B|---2-----2-----2-----2---------|
D|-----2-----2-----2-----2---2---|
A|-0-----------------------------|
E|-------------------------------|
Electrics:ˑˑˑˑˑˑˑˑˑˑˑˑˑˑAmps:
Jackson DKMGFFˑˑˑˑˑˑˑˑˑˑRandall RG100SC G2
Washburn DIME 333ˑˑˑˑˑˑˑRandall RH200X / RA412 2x Half-Stacks
ESP LTD EC-1000 STCB
Dean From Hell CFH
#4
Quote by SinnaSatan
e|-0-----2-----3-----2-----0---2-|
B|---3-----3-----3-----3---------|
G|-----2-----2-----2-----2---2---|
D|-0-----------------------------|
A|-------------------------------|
E|-------------------------------|

e|-------------------------------|
B|-0-----2-----3-----2-----0---2-|
B|---2-----2-----2-----2---------|
D|-----2-----2-----2-----2---2---|
A|-0-----------------------------|
E|-------------------------------|

thats the live acoustic one, you do it with finger picking, the other one is when they play it live electric