#1
yea.. i aint to good w/ making up lyrics, but i do have guitar tabs for a song i made up. play it and tell me wut u think, and if u want made some lyrics up for me

fast tempo

Intro:
----------------------------------------------------------------
----------------------------------------------------------------
----------------------------------------------------------------
--------0--0--2--------0--0--2--------0--0--2--------2--2--0---- X4
--3--3----------------------------------------------------------
-----------------3--3-----------5--5-----------1--1-------------

Verse:
-----------------------------------------------------------------
-----------------------------------------------------------------
-5-5-5-5-5-5-5-5-------------------------------------------------
-5-5-5-5-5-5-5-5-5-5-5-5-5-5-5-5-3-3-3-3-3-3-3-3-5-5-5-5-5-5-5-5- X4
-3-3-3-3-3-3-3-3-5-5-5-5-5-5-5-5-3-3-3-3-3-3-3-3-5-5-5-5-5-5-5-5-
-----------------3-3-3-3-3-3-3-3-1-1-1-1-1-1-1-1-3-3-3-3-3-3-3-3-

Intro:
----------------------------------------------------------------
----------------------------------------------------------------
----------------------------------------------------------------
--------0--0--2--------0--0--2--------0--0--2--------2--2--0---- X2
--3--3----------------------------------------------------------
-----------------3--3-----------5--5-----------1--1-------------

Verse:
-----------------------------------------------------------------
-----------------------------------------------------------------
-5-5-5-5-5-5-5-5-------------------------------------------------
-5-5-5-5-5-5-5-5-5-5-5-5-5-5-5-5-3-3-3-3-3-3-3-3-5-5-5-5-5-5-5-5- X2
-3-3-3-3-3-3-3-3-5-5-5-5-5-5-5-5-3-3-3-3-3-3-3-3-5-5-5-5-5-5-5-5-
-----------------3-3-3-3-3-3-3-3-1-1-1-1-1-1-1-1-3-3-3-3-3-3-3-3-


Chorus:
-------------------------------------------------------------
-------------------------------------------------------------
---------6-6---8---4-4-4----------6-6-------(8---)(6---)-----
---4-----6-6---8---4-4-4--x3-4----6-6-------(8-x8)(6-x8)-4---
---4-----4-4---6---2-2-2-----4----4-4-------(6---)(4---)-2---
---2-------------------------2---------------------------2---

Intro:
----------------------------------------------------------------
----------------------------------------------------------------
----------------------------------------------------------------
--------0--0--2--------0--0--2--------0--0--2--------2--2--0----
--3--3----------------------------------------------------------
-----------------3--3-----------5--5-----------1--1-------------

Verse:
-----------------------------------------------------------------
-----------------------------------------------------------------
-5-5-5-5-5-5-5-5-------------------------------------------------
-5-5-5-5-5-5-5-5-5-5-5-5-5-5-5-5-3-3-3-3-3-3-3-3-5-5-5-5-5-5-5-5- X2
-3-3-3-3-3-3-3-3-5-5-5-5-5-5-5-5-3-3-3-3-3-3-3-3-5-5-5-5-5-5-5-5-
-----------------3-3-3-3-3-3-3-3-1-1-1-1-1-1-1-1-3-3-3-3-3-3-3-3-

Chorus:
-------------------------------------------------------------
-------------------------------------------------------------
---------6-6---8---4-4-4----------6-6-------(8---)(6---)-----
---4-----6-6---8---4-4-4--x3-4----6-6-------(8-x8)(6-x8)-4---
---4-----4-4---6---2-2-2-----4----4-4-------(6---)(4---)-2---
---2-------------------------2---------------------------2---

Bridge:
---------------------------------
---------------------------------
---------------------------------
-9-9-0-4-5-5-4-5-7-7-5-7-9-9-5-4- X8
-9-9-0-4-5-5-4-5-7-7-5-7-9-9-5-4-
-9-9-0-4-5-5-4-5-7-7-5-7-9-9-5-4-

Chorus:
-------------------------------------------------------------
-------------------------------------------------------------
---------6-6---8---4-4-4----------6-6-------(8---)(6---)-----
---4-----6-6---8---4-4-4--x3-4----6-6-------(8-x8)(6-x8)-4--- X3
---4-----4-4---6---2-2-2-----4----4-4-------(6---)(4---)-2---
---2-------------------------2---------------------------2---