#1
hey everybody
i can sweep about four strings right now
and i found some pretty cool sweeping lick right now but myfavorite would have to be

e|-------------
B|-------------
G|-------------
D|----9-14-9
A|--11------11
E|12----------12
Quote by apocalypse13

Quote by Beckerism
I ain't ghetto foo! I's just keeping it real!

Keep it real man.
Click.
#2
........

This should probably be in the Cool Shred Licks Thread
Quote by hepzibahbaptist
Yeah listen to Apoc. He knows what he's talking about.


Quote by hepzibahbaptist
I figured you were going to sig that. And this if you have any sense of humor what so ever.


Founder of the "Marty Friedman > You" Club. PM me or altronataku to join
#4
This one:

-----------------------12h15p13-------------------------------
--------------------11----------14----------------------------
------------------10---------------15-------------------------
-----------------9--------------------16----------------------
---------------8------------------------17--------------------
-------------7-----------------------------18-----------------
-----------6----------------------------------19--------------
---------5---------------------------------------20-----------
-------4--------------------------------------------21--------
-----3-------------------------------------------------22-----
---2------------------------------------------------------23--
-1-----------------------------------------------------------24
              ┌────────────┐
            |  Jet fuel     |
            |  Can't melt    |
            |  Steel Beams  |
            └─────┰──────┘
                    
Last edited by Godly Moose at Aug 27, 2006,
#6

-----------------------12h15p13-------------------------------
--------------------11----------14----------------------------
------------------10---------------15-------------------------
-----------------9--------------------16----------------------
---------------8------------------------17--------------------
-------------7-----------------------------18-----------------
-----------6----------------------------------19--------------
---------5---------------------------------------20-----------
-------4--------------------------------------------21--------
-----3-------------------------------------------------22-----
---2------------------------------------------------------23--
-1-----------------------------------------------------------24


Whoa, I am SO gonna try that on my 12 string!


lol j/k
#7
e|---------2-5-2-------------------7-10-7---------------------9-12-9----------------|
B|----------------------------------------------------------------------------------|
G|------2-6-----6-2------------7-11------11-7-------------9-13------13-9------------|
D|-----4-----------4----------9--------------9----------11--------------11----------|
A|----4-------------4--------9----------------9-------11------------------11--------|
E|-2-5---------------5-2/7-10------------------10/9-12----------------------12-9----|

e|-----4-4---------2-2---------1-1-------------------4h5h7p5p4-------4-4------------|
B|----5---5-------3---3-------2---2---------------5h7---------7-5---5---5-----------|
G|---4-----4-----2-----2-----1-----1---------4h6h7---------------4h7-----6----------|
D|--6-------6---4-------4---3-------3---4h6h7-----------------------------7---------|
A|-7---------7-5---------5-4---------4/7-----------------------------------4-5-4----|
E|------------------------------------------------------------------------------5---|
Quote by Jimi Hendrix
The Blues Is Easy To Play But Hard To Feel.

Quote by Chris Impellitteri
I Promise That My Solos Will Only Get Faster.
[Practice Makes Perfect][Hell Yeah]
#8
Quote by apocalypse13
........

This should probably be in the Cool Shred Licks Thread


He who joyfully marches to music in rank and file has already earned my contempt.
He has been given a large brain by mistake, since for him the spinal cord would fully suffice.


Remember: A prudent question is one half of wisdom.

Click.