#1
Hey, can anyone give a way to help get my playing of this section of "Kissing The Shadows" by COB really supertight, I play it too sloppy and I blame my middle finger,as it can't keep up with my index and ring finger.

Please don't post "Play it over and over again" or "You suck", as they had already both occured to me. I have done the first one and I still suck.

Here it is.

142 bpm I think.



||---------------------------------------------|--------------------------17-15-14----------|
||o---------------14-15-17---15-14-15-14-------|---------------14-15-17------------17-15-14-|
||--16-----------------------------------16-14-|-16-----------------------------------------|
||---------------------------------------------|--------------------------------------------|
||o--------------------------------------------|--------------------------------------------|
||---------------------------------------------|--------------------------------------------|

|-------14----17-15-14----------------15-14-------|
|-15-17----15----------17-14-15-17-14-------17-15-|
|-------------------------------------------------|
|-------------------------------------------------|
|-------------------------------------------------|
|-------------------------------------------------|

|-------------14-15-14----14-----------------------||
|----14-15-17----------17----17-15-14-15-14-------o||
|-16----------------------------------------16-14--||
|--------------------------------------------------||
|-------------------------------------------------o||
|--------------------------------------------------||

R E G G A E
#3
^^^ yeah good stufff
Gibson SG (Cherry)
Gibson Double Neck SG (Cherry)

Musicman AMP

*Building my own guitar now*