#1
tabbed by:Stevie

Drop D tuning


0:00
|----1------1------------1-----1----3-3h5p3--------3---3----------3---3----|
|------3------3------------3-----3-----------------------3---3-----------3----3-----|
|--------2------2------------2----------------------0------------0--0--------|
|---------------------------------------------------0----------------0---------| repeat several times
|----------------------------------------------------------------------------|
|--0----------------0-0----------------------------------------------------|

1:24
|------------------------------------------------------------------------|
|------------------------------------------------------------------------|
|------------------------------------------------------------------------|
|--------7---5------7--5------5--7------------------------------------|
|-0--------------5----------5---------8--7--5-------------------------|
|-0--0------------------------------------------------------------------|

1:48
|-----------------------------------------------------------------------------------|
|-----------------------------------------------------------------------------------|
|-----------------------------------------------------------------------------------|
|--------7---5------7--5------5--7---------------------------------------------5|
|-0--------------5----------5---------8--7--5---5---7--7---5--7--8--5--7----|
|-0--0-----------------------------------------------------------------------------|

|------------------------------------------------------------------------------|
|------------------------------------------------------------------------------|
|------------------------------------------------------------------------------|
|-0-------------------1---1-1-0---------------------------------------------|
|-0-------------------1---1-1-0---------------------------------------------|
|-0-0-0-0-0-0-0---1-0-1-1-0---------------------------------------------|

on those last two just switchback and forth until 2:24

that's all i've got so far.
im starting to play guitar...a little bit of drums too.

my favorite band is Avenged Sevenfold
Last edited by atvsteve at Aug 28, 2006,