#1
I was on my daily prowl through youtube and i stumbled across this amazing version of Texas Flood and it jsut blew me away. Its the live version with SRV, B.B. King, and Albert King. Around 1 minute 49ish when B.B. King is soloing, he plays this one amazing lick. I've been trying to figure it out for a while now, but no luck. If anyone wants take a look for me that would be awsome...


EDIT: Heres the link: http://www.youtube.com/watch?v=nPnXtfSY3LQ
Last edited by srv665 at Aug 28, 2006,
#3
I love that video.

Don't want to be an actor pretending on the stage
Don't want to be a writer with my thoughts out on the page
Don't want to be a painter 'cause everyone comes to look
Don't want to be anything where my life's an open book

Phish - Waste
#4
Oh My God. I would **** myself if I saw that live.


EDIT: Check this one out from In Session with Albert King:

http://www.youtube.com/watch?v=Lqst4vwL3Rs&NR

I didn't know they videoed that.....I have the CD but its even better to watch them.
Member #1 of the Mars Volta club. Pm happytimeharry to join
Last edited by ncsurfer at Aug 28, 2006,
#5
E|----12b13-10--12b13---10---------------13\|
B|-----------------------------13-11--------|
G|----------------------------------12-10-12|
D|------------------------------------------|
A|------------------------------------------|
E|------------------------------------------|


I think that's it
#6
^ it's the lick like right after that, which kinda starts i think at like a 1:50 or 1:51 (thats my bad)
#7
e|-----3--6--8--6-3-------------------------|
B|--3------------------3~~~-----------------|
G|------------------------------------------|
D|------------------------------------------|
A|------------------------------------------|
E|------------------------------------------|


is that it?