#1
Well, Im learning improv, and have been doing it for a while but Im looking for some new tricks.

I dig the blues, as its just about everywhere, I just love it!

So anyway, what are your favorite bluesy riffs?

This isnt very bluesy, but it sounds good with most blues/rock songs imho


---------9------
---7b9---------
-----------------
-----------------
-----------------
-----------------
More or less bending the string below to match that of the higher string
#2
--2-------------
----3-----------
------4--3--2-2~---
---------------
---------------
---------------
RIG
Jackson SL3 Soloist
89' Ibanez RG570
Vader 4x12 Cabinet
Line 6 HD147 Head
6space HEAD/RACK case
Korg DTR1000 Rack Tuner
Furman Power Conditioner
ISP Decimator
#3
the one way out cover by the allman brosthers i havent heard the origanal so it might have the same riff
#5
this one for bluesy licks in A

E----------5-5----
B----------5-5----
G---7b9----------
D------------------
A------------------
E------------------

and this one for bluesy licks in E

E-------------------------------------------
B-------------------------------------------
G-------------------------------------------
D--2-0---0h2p0--------------------------
A-------2----------2-1-0---------0-1-2~
E--------------------------3-0--3---------
Proud owner of a Gibby LP Custom and an all-original Vintage '62 Fender Jag

Quote by richwatkinson
Give 10 UGers a rope and ask them to pull. 4 will push, 1 will ask for buttsecks, 2 will tell you get an Ibanez and the last 3 will start complaining about Line6 Spiders.
#6
Life By the Drop - SRV.
Quote by tronsbasscool
This is my 5th account and I still havn't made any friends


My Rig
ESP Viper 1000
Crate RFX120

<//////>~
#8
Quote by ibaRGnez321
Life By the Drop - SRV.





AMEN TO THAT!

And of course Black Dog by Led Zepp
Gibson SG (Heavily modded)
Fender USA Strat
Hohner 12 String-uber rare

Fender Silverface Twin

EHX Big Muff
Digitech badmonkey overdrive
Boss DS-1
Blackstar Distortion X
Dunlop Crybaby
Ibanez Delay
Digitech Whammy
#9
Quote by ibaRGnez321
Life By the Drop - SRV.


i just learned that a couple weeks ago and its amazing

good call

Proud owner of a Gibby LP Custom and an all-original Vintage '62 Fender Jag

Quote by richwatkinson
Give 10 UGers a rope and ask them to pull. 4 will push, 1 will ask for buttsecks, 2 will tell you get an Ibanez and the last 3 will start complaining about Line6 Spiders.
#11
---------------------
-2--3--3-----------
-3--4--4-----------
---------------------
---------------------
---------------------

the most recognizable riff on the planet.
Dickless.
#12
Quote by MetalMilitia212
---------------------
-2--3--3-----------
-3--4--4-----------
---------------------
---------------------
---------------------

the most recognizable riff on the planet.


More like

E
B
G
D
A-2-2-4-4-2-2-4-4-2-2
E-0-0-0-0-0-0-0-0-0-0